Son Of Sam - Michael Chords & Tabs

 

Michael Chords & Tabs

Son Of Sam Chords & Tabs

Version: 2 Type: Bass Tab 0 ratings
1 star 2 stars 3 stars 4 stars 5 stars
comments

Michael Bass Tab

Son Of Sam - Michael

INTRO 

G|---------------------------| 
D|------8---8-------6---7----| 
A|-1/6-----6-6---4----4------| 
E|---------------------------| (x 8 SLIDE FIRST TIME ONLY) 


CHORUS 

G|-------------------------------------------------| 
D|-88888888-999-11_11_11-99--88888888-666-777-88---| 
A|-------------------------------------------------| 
E|-------------------------------------------------| (x2) 

VERSE 

G|---------------------------| 
D|------8---8-------6---7----| 
A|---6-----6-6---4----4------| 
E|---------------------------| (x 12) 

CHORUS 

G|-------------------------------------------------| 
D|-88888888-999-11_11_11-99--88888888-666-777-88---| 
A|-------------------------------------------------| 
E|-------------------------------------------------| (x4) 
[ Tab from: http://www.guitartabs.cc/tabs/s/son_of_sam/michael_btab_ver_2.html ]
BREAK (1:46) 

G|--------------------------------------------------------------| 
D|--6-4-6---6-4-6--4(16x)--6-4-6---6-4-6--77777777-88888-[stop]-| 
A|--------------------------------------------------------------| 
E|--------------------------------------------------------------| 

VERSE 

G|---------------------------| 
D|------8---8-------6---7----| 
A|---6-----6-6---4----4------| 
E|---------------------------| (x 8) 

ENDING (2:26) 

G|--------------------| 
D|-88888888-66666677--| 
A|--------------------| 
E|--------------------| (x 7) 

THEN 

G|----------------------| 
D|-88888888-66-6-77-----| 
A|-------------------6~-| 
E|----------------------| 


THAT'S ALL THERE IS TO IT. IF YOU LIKE SON OF SAM, 
CHECK OUT AFI'S NEW CD "SING THE SORROW" IN STORES NOW. 

RATE THIS TAB PLEASE 

-JOE-
Comments