Son Of Sam - In The Hills Chords & Tabs

 

In The Hills Chords & Tabs

Son Of Sam Chords & Tabs

Version: 2 Type: Tab 0 ratings
1 star 2 stars 3 stars 4 stars 5 stars
comments

In The Hills Tab

IN THE HILLS, by Son of Sam.
FRom the album "Songs From the Earth"
Tabbed by Jake Strange (aka: scumfuc)
Email:  jakestrange@chaosmagic.com
I believe 100% that this is correct; it's an easy song!

Main Riff:
e|----------------------------------------|
B|----------------------------------------|
G|----------------------------------------|
D|----------------------------------------|
A|--5-5-5--4-4-4-4-4--6-6-6--5-5-5-5-5----|
E|--3-3-3--3-3-3-3-3--3-3-3--3-3-3-3-3----|
[ Tab from: http://www.guitartabs.cc/tabs/s/son_of_sam/in_the_hills_tab_ver_2.html ]
Choruses:
e|----------------------------------------|
B|----------------------------------------|
G|----------------------------------------|
D|--8-8-8-8--3-3-3--5-5-5-5-5-5-5-5-5-5---|
A|--8-8-8-8--3-3-3--5-5-5-5-5-5-5-5-5-5---|
E|--6-6-6-6--1-1-1--3-3-3-3-3-3-3-3-3-3---|

The "other" Part: ('let me open a whole new world!')
Here are the chords, play alongw/ the song to get the rhythm.
e|--------------------------------------------------------|
B|--------------------------------------------------------|
G|--5----8---------------------3-----5-----8------7-------|
D|--5----8-----5---------------3-----5-----8------7-------|
A|--3----6-----5---------------1-----3-----6------5-------|
E|-------------3------------------------------------------|


A suggestion for all people who submit tabs to ANY site...
Make sure your tunings are right!!!
Comments