Son Of Dork - Murdered In The Mosh Chords & Tabs

 

Murdered In The Mosh Chords & Tabs

Son Of Dork Chords & Tabs

Version: 1 Type: Tab

Murdered In The Mosh Tab

This song seems to be a fan favourite so i thought i'd tab it.
The rhythm is not included in this tab, only the chords - you can work the rhythm out it's not too hard.

Some bits I'm not sure on are:

 - Guitar 2 in the verse
 - Some pieces in the outro.

Everything else sounds good to me. Any questions or suggestions email me at:

matt_barry182@msn.com

Thanks for checking out this tab :)

  Intro:
E/--------------|
B/--------------|
G/--------------|
D/---8-8-8-8-8--|
A/---6-5-X-X-X--|
E/-------4-8-6—-|

Verse – Guitar 1 - Repeat intro twice.

  Guitar 2:
E/---------6----|
B/-------6------|
G/-----8--------|
D/---8----------|
A/--------------|
E/-------—------|


  Pre Chorus:
E/-----------|
B/-----------|
G/---8-4-6---|
D/---8-4-6---|
A/---6-4-4---|
E/-------—---|
(Simple plan...pathetic)

  Chorus – Guitar 1
E/----------------------------|
B/----------------------------|
G/--------6-----4-----6-----4-|
D/--------6--6--4--4—-6—-6—-4-|
A/--------4--6—-2-—4—-4—-6—-2-|
E/-----------4-----2-----4----|
(She’s into...)

  Chorus - Guitar 2 (Listen Carefully)
E/------------------------------------------------------------|
B/------------------------------------------------------------|
G/-------10-11-13---11-10/11-----11-10-11-13------11-10/11----|
D/--------x--x--x----x--x--x------x—-x—-x—-x-------x—-x—-x----|
A/--------8--9-10----9--8-/9------9—-8--9-10-------9—-8-/9----|
E/-------—----------------------------------------------------|
(She’s into...)      (And I fall...)(She thinks that...)


  Pre Verse:
E/----------|
B/----------|
G/----------|
D/----------|
A/---4—-4---|
E/---2—-1---|

Repeat Verse and Chorus:
[ Tab from: http://www.guitartabs.cc/tabs/s/son_of_dork/murdered_in_the_mosh_tab.html ]
  Bridge:
E/----------------|
B/----------------|
G/--11--6--4--6---|
D/---x--x--x--x---| x2
A/---9--4--2--4---|
E/----------------|
(Sometimes I wonder...)

  Solo:
E/--------------------------------------------|
B/--------------------------------------------|
G/---15-13-16-15-11----10-11-13-15-16---------|
D/----x--x--x--x--x-----x--x--x--x--x---------|
A/---13-11-14-13--9-----8--9-11-13-14---------|
E/--------------------------------------------|

E/------------------------------------------------------------------|
B/16-14-------------------------------------------------------------|
G/------15----------(x3)--------------------------------------------|
D/---------16-15-16--------------------------15----15-16------------|
A/-------------------------16-15-16-18-16-18----18-------16-18-16---|
E/------------------------------------------------------------------|

Repeat Chorus.

Outro – Guitar 1
E/---------------|
B/---------------|
G/-----6—----4---| x4
D/--4—-6--6--4---|
A/--4—-4--6--2---|
E/--2-----4------|

   Guitar 2
E/---9-----------------7--------------|
B/-----7-9-7-6-7---------11-7---------|
G/------------------------------------|
D/------------------------------------| x8
A/------------------------------------|
E/------------------------------------|

Part with no drums

   Guitar 1 (clean) –
E/----------------------------------------------------|
B/----------------------------------------------------|
G/------6-----6------6-----6-----6-----6-----6-----6--|
D/----4-----4------4-----4-----4-----4-----4-----4----| x3
A/---------------4-----4------------------------------|
E/--2-----2------------------4-----4-----2-----2------|