Son Of Dork - Boyband Chords & Tabs

 

Boyband Chords & Tabs

Son Of Dork Chords & Tabs

Version: 1 Type: Tab

Boyband Tab

e|---7---9/11--9---7---9---7--9/11--------9/11--9--7--9--7---9/11-------|
B|-----------------------------------9----------------------------------|
G|-----------------------------------------------------------------11---|
D|----------------------------------------------------------------------|
A|----------------------------------------------------------------------|
E|----------------------------------------------------------------------|
[ Tab from: http://www.guitartabs.cc/tabs/s/son_of_dork/boyband_tab.html ]
e|---9/11--9---7---9---7--9/11------------------------------------    --|
B|-----------------------------------9----------------------------------|
G|---------------------------------------11\9----9\7----5---------------|
D|----------------------------------------------------------------------|
A|----------------------------------------------------------------------|
E|----------------------------------------------------------------------|

tabbed by steve r