Son By Four - Purest Of Pain Chords & Tabs

 

Purest Of Pain Chords & Tabs

Son By Four Chords & Tabs

Version: 2 Type: Tab 0 ratings
1 star 2 stars 3 stars 4 stars 5 stars
comments

Purest Of Pain Tab

   
   C        G               AM           EM         F        C         F
E--0--------3-3-3--1--0------------------0--------------------------------------|
B----1---1---------------3--1--1---1--3----3--1--0----1-1---1--1-1---1----------|
G------0-------------------------2------------------2---------2--------2--------|
D---------------------------------------------------3---------3--------3--------|
A--3---------------------------0------------------------------------------------|
E-------------------------------------------------------------------------------|


  G
E------0-1-0------------------------------------------------------------------|
B-1-3--------3-1--------------------------------------------------------------|
G-----------------------------------------------------------------------------|
D-----------------------------------------------------------------------------|
A-----------------------------------------------------------------------------|
E-----------------------------------------------------------------------------|
[ Tab from: http://www.guitartabs.cc/tabs/s/son_by_four/purest_of_pain_tab_ver_2.html ]
Comments