Sommerset - Mcmxcviii Chords & Tabs

 

Mcmxcviii Chords & Tabs

Sommerset Chords & Tabs

Version: 2 Type: Bass Tab 0 ratings
1 star 2 stars 3 stars 4 stars 5 stars
comments

Mcmxcviii Bass Tab

Band - Sommerset
Song - MCMXCVIII
Album - Sommerset/28 Days Split CD
Tabbed By - Paul Comrie-Thomson

It's 1998...
G----------------------------------------------------------
D----------------------------------------------------------
A------------------5--5--5-5-5-----------------------------
E-3--3--3-3-3--------------------5--5--5-5-5---5--5--5-5-5-

Get your head out...
G----------------------------------------------------------
D----------------------------------------------------------
A-2--2--2-2-2---2--2--2-2-2---3--3--3--3--3--3--3--3-------
E----------------------------------------------------------

It's not anything...
G----------------------------------------------------------
D----------------------------------------------------------
A-----------------5--5--5--5------------------3--3--3--3---
E-3--3--3--3-------------------5--5--5--5------------------

Instrumental = then = Is it time you...
G----------------------------------------------------------
D----------------------------------------------------------
A-------------------5--5--5--5--5--5--5--5-----------------
E-3--3--3--3--3-----------------------------3--3--3--3--3--
[ Tab from: http://www.guitartabs.cc/tabs/s/sommerset/mcmxcviii_btab_ver_2.html ]
G----------------------------------------------------------
D----------------------------------------------------------
A-5--5--5--5--5--5--5--5---2--2--2--2--2--2--2--2--3--3--3-
E----------------------------------------------------------

G----------------------------------------------------------
D----------------------------------------------------------
A-3--3--3--3--3--2--2--2--2--2--2--2--2--------------------
E----------------------------------------------------------

Lyrics:
It's 1998, It seems like we were 10 years too late - 10 years too late for all 
the things you wanted too.  And I'm not saying that yesterday was nothing.  All 
I'm saying's today is valid too.  Get your head out of the clouds and get your 
face out of the crowd, it's not anything you can't do now.  Is it time you let 
go? And is it right that you let go? You take 10 years and make nothing into 
everything.  It's one thing and you make it into everything when today is valid too.

***********************************************************
This is a wicked song by a very cool New Zealand band.  
E-mail me at {p_comrie_thomson@users.basstabarchive.com} 
if you want me to tab any punk stuff for you.

Comments