Something For Kate - Three Dimensions Chords & Tabs

 

Three Dimensions Chords & Tabs

Something For Kate Chords & Tabs

Version: 2 Type: Tab 0 ratings
1 star 2 stars 3 stars 4 stars 5 stars
comments

Three Dimensions Tab

Three Dimensions

Standard Tuning

Intro and Verse
e----------------------------------------------------------------------|
B----------------------------------------------------------------------|
G--------------------------8--9----------------------------------------|
D-11--9--6--7--9----11--9--6--6----------------------------------------|
A-11--9--6--7--9----11--9--------6-7-9---------------------------------|
E-9---7--4--5--7----9---7----------------------------------------------|
[ Tab from: http://www.guitartabs.cc/tabs/s/something_for_kate/three_dimensions_tab_ver_2.html ]
Chorus
e----------------------------------------------------------------------|
B----------------------------------------------------------------------|
G------4----------------9----------------------------------------------|
D-4----4----------------9----------------------------------------------|
A-4----2----------------7----------------------------------------------|
E-2--------------------------------------------------------------------|
"I am bored with three dimensions..."

Lead after chorus (distorted)
e----------------------------------------------------------------------|
B----------------------------------------------------------------------|
G----------------------------------------------------------------------|
D---------6------------------------------------------------------------|
A-6-4-6-4-----(x4)-----------------------------------------------------|
E----------------------------------------------------------------------|

Sorry about the last one but it came out all weird for some reason. If
you find out about the bridge or have any trouble email me at
parmickb@tasmail.com
Comments