Something For Kate - Hallways Chords & Tabs

 

Hallways Chords & Tabs

Something For Kate Chords & Tabs

Version: 1 Type: Bass Tab 0 ratings
1 star 2 stars 3 stars 4 stars 5 stars
comments

Hallways Bass Tab

Hallways - Something for Kate
Bass Tab

Tabbed by Conan Thorogood (errolschmidt@powerup.com.au)

Bass starts when vocals begin...

VERSE:
"They'll never find us..."
   1     2     3     4     1     2     3     4     
G|-------------------------------------------------
D|-------------------------------------------5-----
A|-------------------------------------------------
E|-7-----------------------------------------------

   1     2     3     4     1     2     3     4     
G|-7-----------------------------------------------
D|-------------------------------------------------
A|-------------------------------------------------
E|-------------------------------------------------         x3, then


"but i know where i am"...
   1     2     3     4     1     2     3     4     
G|-------------------------------------------------
D|-------------------------------------------5--5--
A|-------------------------------------------------
E|-7-----------------------------------------------

   1     2     3     4     1     2     3     4     
G|-------------------------------------------------
D|-7--7--------------------------------------------
A|-------5--5--7--7--------------------------------
E|-------------------5--5--7--7--0--0--2--2--3--3--

CHORUS:

   1     2     3     4     1     2     3     4     
G|-------------------------------------------------
D|-------------------------------------------------
A|-------------------------------------------------
E|-3-----3---3-3--3--------7--7-----5-----0-----0--        x3,

   1     2     3     4     1     2     3     4     
G|-------------------------------------------------
D|-------------------------------------------------
A|-------------------------------------------------
E|-2-----2--------2--------0--0--0--0--0--0--0--0--

basic verse part repeats twice, then...

"they bow their heads..."
   1     2     3     4     1     2     3     4     
G|-------------------------------------------------
D|-------------------------------------------5-----
A|-------------------------------------------------
E|-7-----------------------------------------------

   1     2     3     4     1     2     3     4     
G|-------------------------------------------------
D|----7--------------------------------------------
A|-------------------------------------------------
E|------------------------------------------------- 

G|-------------------------------------------------
D|-------------------------------------------5--5--
A|-------------------------------------------------
E|-7-----------------------------------------------

   1     2     3     4     1     2     3     4     
G|-------------------------------------------------
D|-7--7--------------------------------------------
A|-------5--5--7--7--------------------------------
E|-------------------5--5--7--7--0--0--2--2--3--3--

[ Tab from: http://www.guitartabs.cc/tabs/s/something_for_kate/hallways_btab.html ]
Chorus repeats

then, there's a different bit...
"i had her on the phone"...
   1     2     3     4     1     2     3     4     
G|-------------------------------------------------
D|-------------------------------------------------
A|-5--5--5-----5--5--5--5--2--2--2---2-2--2--2--2--
E|-------------------------------------------------

   1     2     3     4     1     2     3     
G|--------------------------------------------
D|--------------------------------------------
A|-3--3--3-----3--3--3--3---------------------
E|-------------------------2--2--2-----2------

"didn't we..."
   1     2     3     4     1     2     3     4     
G|-------------------------------------------------
D|-------------------------------------------------
A|-0--0--0---0--0--0-0--0--0--0--0---0--0--0-0--0--
E|-------------------------------------------------

   1     2     3     4     1     2     3     4     
G|-------------------------------------------------
D|-------------------------------------------------
A|-3--3--3---3--3--3-3--3--3--3--3---3--3--3-3--3--
E|-------------------------------------------------

Chorus repeats, finishes with
   1     2     3     4     1     2     3     4     
G|-------------------------------------------------
D|-------------------------------------------------
A|-------------------------------------------------
E|-2-----2--------2--------3-----3--3--3--3--3--3--

"she said that's entertainment..."

   1     2     3     4     1     2     3     4     
G|-------------------------------------------------
D|-------------------------------------------------
A|-------------------------------------------------
E|-7--7----5------0-----0--3-----3--3--3--3--3--3--

"we didn't wanna know,        he carried the shop-"
   1     2     3     4     1     2     3     4     
G|-------------------------------------------------
D|-------------------------------------------------
A|-------------------------------------------------
E|-7--7----5------0-----0--3-----3--3--3--3--3--3--

  "-ing back,        and she carried them both"...
   1     2     3     4     1     2     3     4     
G|-------------------------------------------------
D|-------------------------------------------------
A|-------------------------------------------------
E|-7--7----5------0--------2-----2--------2--------

   1     2     3     4     1     2     3     4     1     2     3     4
G|-------------------------------------------------------------------------
D|-------------------------------------------------------------------------
A|-------------------------------------------------------------------------
E|-0-----0--------0--------2-----2--------2--------3-----------------------

ok, um... most of it should be pretty close, i'm not sure about the picking 
patterns though.  any comments or whatever, please email me at 
errolschmidt@powerup.com.au.
:-)

Comments