Something For Kate - Best Weapon Chords & Tabs

 

Best Weapon Chords & Tabs

Something For Kate Chords & Tabs

Version: 1 Type: Bass Tab 0 ratings
1 star 2 stars 3 stars 4 stars 5 stars
comments

Best Weapon Bass Tab

-------------------------------------------------------------------------------
			     BEST WEAPON - Something for Kate
-------------------------------------------------------------------------------

Tabbed By : Phoebe
e-mail: pop_music_hater@hotmail.com

Tuning:Standard [EADG]


Piano Intro (No Bass)

Verse #1 (Bass Starts 00:11)

G|-----------------------------------------|
D|---------------------4444-00-6h7-22222222|
A|44444444-000000-2h4----------------------|
E| ----------------------------------------|

G|----------------------------------------------------|
D|--------------------4444----------------------------|
A|44444444-000000-2h4---------5555-444444-2h4-55555555|
E| ---------------------------------------------------|

G|--------------------------------------------------|
D|4444-00-6h7-2222222222---------4h6----------------|
A|------------------------444444----------000000-2-0|
E| -------------------------------------------------|

G|-------------------------------------------------------------|
D|4444-0000-----------------------4444-00-67-22222222-4444-0000|
A|-----------444444-2h4-55555555-------------------------------|
E| ------------------------------------------------------------|

Chorus #1 (00:59)

G|------------------------------|
D|------------------------------|
A|------------1-1-----/6-6-6-6-6|
E|3-3-3-3-3-3-----1-1-----------|

G|-----------------------------------|
D|-----------------------------------|
A|------3-4-5-------1-1------/6-6h8-6|
E|-3/6--------6\3---------1-1--------|              

G|----------------------------------|
D|-------2-4-5----------------------|
A|------------------1-1-------/66666|
E|3-3-------------------1-1---------|

G|--------------------------------|
D|------7/5-----------------------|
A|---------------------/5--5-5-5-5|
E|-3-3-------2-2------------------|

Verse #2 (01:29)

G|--------------------------------------------------|
D|--------------------4444--------------------------|
A|44444444-000000-2h4-------5555-444444-2h4-55555555|
E| -------------------------------------------------|

G|--------------------------------------------------|
D|4444-00-6h7-2222222222--------------4h6-----------|
A|------------------------444444----------000000-2-0|
E| -------------------------------------------------|

G|------------------------------------------------------------|
D|4444-0000--------------------------------4444-00-67-22222222|
A|---------------444444-2h4-55555555--------------------------|
E| -----------------------------------------------------------|

Stop Part - "And They Don't Recognise .... "

G|--------------------------|
D|--------------------------|
A|4-4-4-------0-0-0---------|
E| -------------------------|

G|----------------------------------------------------------------------|
D|4444-0000--------------------------------4444-00-67-22222222-4444-0000|
A|---------------444444-2h4-55555555------------------------------------|
E| ---------------------------------------------------------------------|

Chorus #2 (2:24)
[ Tab from: http://www.guitartabs.cc/tabs/s/something_for_kate/best_weapon_btab.html ]
G|------------------------------|
D|------------------------------|
A|------------1-1-----/6-6-6-6-6|
E|3-3-3-3-3-3-----1-1-----------|

G|-----------------------------------|
D|-----------------------------------|
A|------3-4-5-------1-1------/6-6h8-6|
E|-3/6--------6\3---------1-1--------|              

G|----------------------------------|
D|-------2-4-5----------------------|
A|------------------1-1-------/66666|
E-|3-3-------------------1-1--------|

G|---------------------------------------|
D|------7/5------------------------------|
A|---------------------/5----------/3-3--|
E|-3-3-------2-2------------1-1----------|

G|-----------------------------------|
D|------7/5--------------------------|
A|-----------------/5----------/3-3--|
E|-3-3-------2-2---------1-1---------|

Bridge Part (3:00)

G|---------------------------------------------------------------------------------------|
D|---------------------------------------------------------------------------------------|
A|---6--/-----10--------------------------6----/------10---------------------------------|
E|--------------------6-----\-----3------------------------------6--------\--------3-----|

G|-----------------------|
D|-----------------------|
A|---6-------------------|
E|------- 6-----6-h-8----|      

G|---------------------------------------------------------------------------------------|
D|---------------------------------------------------------------------------------------|
A|---6--/-----10--------------------------6----/------10---------------------------------|
E|--------------------6-----\-----3------------------------------6--------\--------3-----|

G|--------------------------------------|
D|--------------------------------------|
A|---6----------------------------------|
E|------6-----6-h-8--8-8-8-8-8-8-8-8----|      

Last Chorus (03:30)

G|-------------------------------|
D|-------------------------------|
A|-------------1-1-----/6-6-6-6-6|
E|3-3-3-3-3-3-------1-1----------|

G|-----------------------------------|
D|-----------------------------------|
A|------3-4-5-------1-1------/6-6h8-6|
E|-3/6--------6\3---------1-1--------|              

G|------------------------------------------|
D|-------2-4-5-------------3-3--0--1-1-1-1-1|
A|------------------1-1---------------------|
E|3-3---------------------------------------|

G|----------------------------------------|
D|------7/5-------------3-3--0--1-1-1-1-1-|
A|--------------1-1-----------------------|
E|-3-3------------------------------------|

G|----------------------------------|
D|----------------------------------|
A|-------------1-1--------/6-6-6-6-6|
E|3-3-3-3-3-3--------1-1------------|

G|-----------------------------------|
D|-----------------------------------|
A|------3-4-5-------1-1------/6-6h8-6|
E|-3/6--------6\3---------1-1--------|              

G|------------------------------------------|
D|-------2-4-5------------3-3--0--1-1-1-1-1-|
A|------------------1-1---------------------|
E|3-3---------------------------------------|

End on the G (04:21)

G|--------------|
D|--------------|
A|--------------|
E|----3---------|


And that's it!! 
Any corrections, questions or whatever email me at  : [ pop_music_hater@hotmail.com ] 
Thanx & rock on SFK!!
Comments