Something Corporate - Watch The Sky Chords & Tabs

 

Watch The Sky Chords & Tabs

Something Corporate Chords & Tabs

Version: 1 Type: Tab 0 ratings
1 star 2 stars 3 stars 4 stars 5 stars
comments

Watch The Sky Tab

this is my first tab so here goes, my email is brogz15@excite.com -- check out my band
if you get the chance, feedback is always welcome www.purevolume.com/oncomingtraffic -
www.myspace.com/oncomingtraffic - www.octmusic.vze.com -- enjoy!

Something Corporate - Watch The Sky
Standard Tuning

[ Tab from: http://www.guitartabs.cc/tabs/s/something_corporate/watch_the_sky_tab.html ]
intro/verse
-------------|
-------------|
----------4--|
----6--2--4--|
----6--2--2--|  x9
----4--0-----|

chorus 
-----------------------------|
-----------------------------|
-------------4--3------------|
----6--2--4--4--3--6--2--4--4|
----6--2--4--2--1--6--2--4--4|  x2
----4--0--2--------4--0--2--2|

intro/verse x5
chorus x2

breakdown is same as the intro/verse hold out the notes, then it strums through, just listen

chorus x2
intro/verse long tones again.
Comments