Something Corporate - Wait Chords & Tabs

 

Wait Chords & Tabs

Something Corporate Chords & Tabs

Version: 1 Type: Tab 0 ratings
1 star 2 stars 3 stars 4 stars 5 stars
comments

Wait Tab

   
 "WAIT" SOMETHING CORPORATE
 (CAPO 7) guitar 1; (CAPO 2) guitar 2
 Sounds pretty good, capos are def right.
 This is my first tab, corrections welcome.
 You'll have to listen to the song to get
 the picking / strumming patterns down.

(Guitar 1:)
E--3-----3-----3--------------|
B--3-----3-----3--------------|
G--0-----0-----0--------------|
D--2-----0-----0--------------|
A--3-----2-----0--------------|
E--------3-----2--------------|
   C9    G    G/F

(Guitar 2:)pattern #1
E------0-------0-------1-0--0-0---0--|-----0-------0-------1-0--|
B----1---1---1---1---1----------0---0|---1---1---1---1---1------|
G--0-------0-------0-----------------|-0-------0-------0--------|
D------------------------------------|--------------------------|
A------------------------------------|--------------------------|
E------------------------------------|--------------------------|

(Guitar 2:)pattern #2

E-----------------------------13-13-13-13-14-13-------13-13------|
B----11-11-11-11--------------------------------14-14-------14---|
G-----------------13-13-13---------------------------------------|
D---------------------------11-----------------------------------|
A----------------------------------------------------------------|
E----------------------------------------------------------------|

E------------------------------------------------|
B-11-11-11-11------------------------------------|
G-------------13-13-13-13----10-10-10-11-10------|
D-------------------------11----------------11---|
A------------------------------------------------|
E------------------------------------------------|

INTRO:
C9,G/F,G X2
[ Tab from: http://www.guitartabs.cc/tabs/s/something_corporate/wait_tab.html ]
      C9
i can hear ticking clocks,
        G/F        G
running rampant in me,
           C9
chiming in apogee
G/F		G
waiting for the cynergy
C9         	G/F            G
of her and me waiting on the light
      C9
and i never say goodnight
G/F            G             C9  C9 G/F  G    C9,C9,G/F,G
never say that i'm always... right

(Same progression throughout song)


now in you girl
i'm consent to drown
you're so high and i'm so down
this night'll end sooner but much sooner now
i'm awake in you and you're asleep in me
all the things i'll never be
make me wonder could you see
and i said

wait, till i hit the ground harder
wish i could wait, to i could hear your heartbeat fast
wish i could wait till i missed her flavour
my days are numbered here
and i don't want to be the last one home
don't want to be the last one home


though i'm weak inside
i'm thriving just the same
still calling out your name
wondering who it is that i should blame
stabbing hard and burried
conciousness and fear
forgetting others i hold dear
wontcha maybe could you hear
and i said to

wait, till i hit the ground harder
wish i could wait, to hear your heartbeat fast
wish i could wait till i missed her flavour
my days are numbered here
and i don't want to be the last one home
no no no

the last one home
(oh here we go...)

(Bridge, diff picking, not included)
there you are baby
just waiting on the sun
just staring at the sky
said when will he be done
and i said there you are baby
waiting on the sun
staring at the sky
said when will he be done
when will he be done

and i wish i could wait, till i see you shaking
wish i could wait to pull out of this one fast
wish i could wait till i taste your flavour
and maybe i can savour every last drop
and i said

wait, till i hit the ground harder
wish i could wait, to hear to hear your heartbeat fast
i wish i could wait to see you shaking
my days are numbered here
and i don't want to be the last one home
the last one home
the last one home
Comments