Something Corporate - Wait Acoustic Chords & Tabs

 

Wait Acoustic Chords & Tabs

Something Corporate Chords & Tabs

Version: 1 Type: Tab 0 ratings
1 star 2 stars 3 stars 4 stars 5 stars
comments

Wait Acoustic Tab

   
----------------------------------------------------------------------------
		      Wait(acoustic)- Something Corporate
----------------------------------------------------------------------------
Tabbed by:kevin
let me know what you think. kmueller@uiuc.edu  i saw another one but
i'm sure that this is pretty much 100%.  its in a strange tuning but
still an amazing song. ive also included the correct lyrics under the
tabs that its sung with

Capo 4th fret
Tuning: D Ab Db D A A

Intro/Verse
A |-----0-0----------0-0----------0-0----------0-0------|
A |-----0-0----------0-0----------0-0----------0-0------|
D |-----0-0----------0-0----------0-0----------0-0------|
Db|-3-3-3-3------3-3-3-3------3-3-3-3------3-3-3-3------|
Ab|-6-6-6-6------5-5-5-5------0-0-0-0------1-1-1-1------|
D |-x-x-x-x------x-x-x-x------x-x-x-x------x-x-x-x------|

  i can hear ticking clocks, running rampant in me
  chiming in an apogee, waiting for the synergy of her and me
  waiting on the light, and i never say goodnight
  never say that i'm always right

Little piece in between verses
A |-0-0-0-0------0-0-0-0------0-0-0-0------|
A |-0-0-0-0------0-0-0-0------0-0-0-0------|
D |-0-0-0-0------0-0-0-0------0-0-0-0------|
Db|-3-3-3-3------3-3-3-3------3-3-3-3------|
Ab|-6-6-6-6------0-0-0-0------1-1-1-1------|
D |-x-x-x-x------x-x-x-x------x-x-x-x------|

Verse
A |-----0-0----------0-0----------0-0----------0-0------|
A |-----0-0----------0-0----------0-0----------0-0------|
D |-----0-0----------0-0----------0-0----------0-0------|
Db|-3-3-3-3------3-3-3-3------3-3-3-3------3-3-3-3------|
Ab|-6-6-6-6------5-5-5-5------0-0-0-0------1-1-1-1------|
D |-x-x-x-x------x-x-x-x------x-x-x-x------x-x-x-x------|

  now a new girl, i'm content to drown you're so high and i'm so down
  this night will end sooner but much sooner now, and i'm awake in you
  and you're asleep in me, all the things i'll never be
  make me wonder could you see and i said

Chorus
A |-0-0-0-0------0-0-0-0------0-0-0-0------0-0-0-0------|
A |-0-0-0-0------0-0-0-0------0-0-0-0------0-0-0-0------|
D |-0-0-0-0------0-0-0-0------0-0-0-0------0-0-0-0------|
Db|-3-3-3-3------3-3-3-3------3-3-3-3------3-3-3-3------|
Ab|-6-6-6-6------5-5-5-5------0-0-0-0------1-1-1-1------|
D |-x-x-x-x------x-x-x-x------x-x-x-x------x-x-x-x------|

  wait till i hit the ground harder, wish i could wait
  to hear her heart beat fast, wish i could wait till i missed her flavor
  my days are numbered here and i don't want to be the last one home
  don't want to be the last one home

Verse
A |-----0-0----------0-0----------0-0----------0-0------|
A |-----0-0----------0-0----------0-0----------0-0------|
D |-----0-0----------0-0----------0-0----------0-0------|
Db|-3-3-3-3------3-3-3-3------3-3-3-3------3-3-3-3------|
Ab|-6-6-6-6------5-5-5-5------0-0-0-0------1-1-1-1------|
D |-x-x-x-x------x-x-x-x------x-x-x-x------x-x-x-x------|
[ Tab from: http://www.guitartabs.cc/tabs/s/something_corporate/wait_acoustic_tab.html ]
  though i'm weak inside, i'm thriving just the same
  still calling out your name wondering who it is that i should blame
  stabbing hard and buried consciousness and fear
  forgetting others i hold dear, wondering maybe could you hear
  when i said to

Chorus
A |-0-0-0-0------0-0-0-0------0-0-0-0------0-0-0-0------|
A |-0-0-0-0------0-0-0-0------0-0-0-0------0-0-0-0------|
D |-0-0-0-0------0-0-0-0------0-0-0-0------0-0-0-0------|
Db|-3-3-3-3------3-3-3-3------3-3-3-3------3-3-3-3------|
Ab|-6-6-6-6------5-5-5-5------0-0-0-0------1-1-1-1------|
D |-x-x-x-x------x-x-x-x------x-x-x-x------x-x-x-x------|

  wait till i hit the ground harder, wish i could wait
  to hear her heart beat fast, wish i could wait till i missed her flavor
  my days are numbered here and i don't want to be the last one home
  no no no the last one home, oh here we go

Bridge
A |-0-0-0-0------0-0-0-0------0-0-0-0------0-0-0-0------|
A |-0-0-0-0------0-0-0-0------0-0-0-0------0-0-0-0------|
D |-0-0-0-0------0-0-0-0------0-0-0-0------0-0-0-0------|
Db|-3-3-3-3------3-3-3-3------3-3-3-3------3-3-3-3------|
Ab|-6-6-6-6------5-5-5-5------1-1-1-1------0-0-0-0------|
D |-x-x-x-x------x-x-x-x------x-x-x-x------x-x-x-x------|

  and i said there you are baby, waiting on the sun, just
  staring at the sky sayin "when will he be done" i said there you are baby
  waiting on the sun just staring at the sky sayin
  "when will he be done," "when will he be done,"
                   /
                  /
            The little fingerpicking part
            A |----------------------------------------|
            A |-----0-------0-------0-------0----------|
            D |---0---0---0---0---0---0---0---0--------|
            Db|----------------------------------------|
            Ab|-6-------5-------0-------1--------------|
            D |----------------------------------------|

Verse
A |-----0-0----------0-0----------0-0----------0-0------|
A |-----0-0----------0-0----------0-0----------0-0------|
D |-----0-0----------0-0----------0-0----------0-0------|
Db|-3-3-3-3------3-3-3-3------3-3-3-3------3-3-3-3------|
Ab|-6-6-6-6------5-5-5-5------0-0-0-0------1-1-1-1------|
D |-x-x-x-x------x-x-x-x------x-x-x-x------x-x-x-x------|

  and i wish i could wait
  till i see you shaking, wish i could wait
  to pull out of this one fast, wish i could...

Chorus
A |-0-0-0-0------0-0-0-0------0-0-0-0------0-0-0-0------|
A |-0-0-0-0------0-0-0-0------0-0-0-0------0-0-0-0------|
D |-0-0-0-0------0-0-0-0------0-0-0-0------0-0-0-0------|
Db|-3-3-3-3------3-3-3-3------3-3-3-3------3-3-3-3------|
Ab|-6-6-6-6------5-5-5-5------0-0-0-0------1-1-1-1------|
D |-x-x-x-x------x-x-x-x------x-x-x-x------x-x-x-x------|

  wait till i taste your flavor, then maybe i could savor every last drop
  and i said to wait till i hit the ground harder, wish i could wait to
  hear, to hear your heart beat fast, i wish i could wait till i see you
  shaking, my days are numbered here and i don't want to be the last one
  home, the last one home, the last one home
Comments