Something Corporate - Straw Dog Chords & Tabs

 

Straw Dog Chords & Tabs

Something Corporate Chords & Tabs

Version: 3 Type: Tab 0 ratings
1 star 2 stars 3 stars 4 stars 5 stars
comments

Straw Dog Tab

Something Corporate - Straw Dog
By Tim Miller
Email: Komanderpoopypants1@hotmail.com

Intro
E|-------------------------------------|
B|-------------------------------------|
G|----------8-9---------------------13-|
D|---6--8-9-----------Play this-----13-|
A|-------------------on last time---11-|
E|-------------------------------------|

Chorus
E|-----------------------------------------|
B|-----------------------------------------|
G|--4-4-4-4---------6-6-6-6----------------|
D|--4-4-4-4-2-2-2-2-6-6-6-6--4---4---------|
A|--2-2-2-2-2-2-2-2-4-4-4-4--4---4---------|
E|----------0-0-0-0----------2---2---------|

E|----------------------------------|
B|----------------------------------|
G|--4-4-4-4---------6-6-6-6---------|
D|--4-4-4-4-2-2-2-2-6-6-6-6-4-4-4-4-|
A|--2-2-2-2-2-2-2-2-4-4-4-4-4-4-4-4-|
E|----------0-0-0-0---------2-2-2-2-|
[ Tab from: http://www.guitartabs.cc/tabs/s/something_corporate/straw_dog_tab_ver_3.html ]
Verse
Play at these times, Im pretty sure this is the right time
But its not perfect
  (01:14)  (1:18) (01:24)
  (01:16)  (1:21) (01:26)
E|----------------------------------|
B|----------------------------------|
G|-15-13---11-15---15-13------------|
D|-13-11---11-13---13-11------------|
A|-13-11---9--13---13-11------------|
E|----------------------------------|
     
Bridge                                           End On
E|-----------------------------------------------|----|
B|-----------------------------------------------|----|
G|--------8-9--9-9-9-9--11-11-11-11--13-13-13-13-|-11-|
D|-6--8-9------9-9-9-9--11-11-11-11--13-13-13-13-|-11-|
A|-------------7-7-7-7--9--9--9--9---11-11-11-11-|-9--|
E|-----------------------------------------------|----|

ORDER
Intro ....x2
Chorus....x2
Intro.....x1
Verse.....x1
Chorus....x4
Bridge....x4
Chorus....x8 (im pretty sure its 8 times)
Intro.....x2
Comments