Something Corporate - Straw Dog Chords & Tabs

 

Straw Dog Chords & Tabs

Something Corporate Chords & Tabs

Version: 1 Type: Tab 0 ratings
1 star 2 stars 3 stars 4 stars 5 stars
comments

Straw Dog Tab

  Intro  x2             End chord of intro
e|--------------------|--------------------| 
B|--------------------|--------------------|    
G|--------------8---9-|--13----------------|
D|--6---8---9---8---9-|--13----------------|
A|--6---8---9---6---7-|--11----------------|
E|--4---6---7---------|--------------------|

Verse (with piano only)
Staring into the intersection 
She thinks that she can fly and she might
Holding on in a new direction she's gonna try it tonight
The closer I get to feeling the further that Iím feelin from alright
The more I step into the sun the more I step out of the light
(drums)
Jessica's covered in a blanket on the Sunday porch
Thinking of weekends she would party in the city
She doesnít have a flame
She prefers to burn out like a torch
If she gets no where in life at least she knows she pretty
[ Tab from: http://www.guitartabs.cc/tabs/s/something_corporate/straw_dog_tab.html ]
Chorus: She said hey, now, the straw dog's out in the street
e|--------------------| 
B|--------------------|  (strum evenly, 4 times for each chord, and only once on  
G|--4-------6---------|   the last two chords)
D|--4---2---6---4---4-|
A|--2---2---4---4---4-|
E|------0-------2---2-|
Hey now, there's chemicals in the clouds
e|--------------------| 
B|--------------------|  
G|--4-----------------|
D|--4---2---6---4---4-|
A|--2---2---6---4---4-|
E|------0---4---2---2-|
Hey now, their calling all the police
e|--------------------| 
B|--------------------|  (strum evenly, 4 times for each chord, and only once on  
G|--4-------6---------|   the last two chords)
D|--4---2---6---4---4-|
A|--2---2---4---4---4-|
E|------0-------2---2-|
But they won't get to us, anyhow
e|---------------------------|-----| 
B|---------------------------|-----|  
G|--4-------------------8---9|---13|    (hold last chord)
D|--4---2---6---8---9---8---9|---11|
A|--2---2---6---8---9---6---7|---11|
E|------0---4---6---7--------|-----|

Verse 2: (hold chord 11-11-13 until "all the noise")
The room is shining now
and shadows are what's left of all the noise
e|-----------|
B|-----------|
G|---15--13--|
D|---13--11--|
A|---13--11--|
E|-----------|
Simple Silhouettes and cutouts
as if we had the choice
e|------------|
B|------------|
G|---11---15--|
D|---11---13--|
A|---9----13--|
E|------------|
He listens closely now
Swears that he can hear a voice, that's callin him
e|-----------|
B|-----------|
G|---15--13--|
D|---13--11--|
A|---13--11--|
E|-----------|

Chorus into the intro 4x and hold the end of intro chord
Guitar 2 plays this at the same time
e|------------|
B|------------|
G|---9--11--13|
D|---7--11--11|
A|---7--9---11|
E|------------|

Piano section....
What does it take to be a superhero in my world
Make no mistake that these villains always get the girl
We can escape, and then we'd skate away from all of this
But no one ever does

Chorus

End on Intro
Comments