Something Corporate - Space Chords & Tabs

 

Space Chords & Tabs

Something Corporate Chords & Tabs

Version: 1 Type: Tab 0 ratings
1 star 2 stars 3 stars 4 stars 5 stars
comments

Space Tab

                            Space- By Something Corporate

Hey! This songs off Something Corporate's newest cd, North. There's no tabs
here for it so i figured i try it. It's my very first tab, but i think it sounds
right, Leave corrections if somethings wrong. SoCo Rocks!


Tabbed by: slyguyty
Email: cwatudid2meagain@yahoo.com
Tuning:Standard

Verse 1 Palm Muted!

e|--------------------------------------------------------------------------
B|--------------------------------------------------------------------------
G|---4-4-4-4-4-4-4-4-4-4-4-4-4-4-4-4--7-7-7-7-7-7-7-7-----------------------
D|---4-4-4-4-4-4-4-4-4-4-4-4-4-4-4-4--7-7-7-7-7-7-7-7--7-7-7-7-7-7-7-7------
A|---2-2-2-2-2-2-2-2-2-2-2-2-2-2-2-2--5-5-5-5-5-5-5-5--7-7-7-7-7-7-7-7------
E|-----------------------------------------------------5-5-5-5-5-5-5-5------

Chorus
[ Tab from: http://www.guitartabs.cc/tabs/s/something_corporate/space_tab.html ]
e|--------------------------------------------------------------------------
B|--------------------------------------------------------------------------
G|------------------4-4-4-4-4-4-4-4-----------------------------------------
D|---7-7-7-7-7-7-7--4-4-4-4-4-4-4-4--5-5-5-5-5-5-5-5--2-2-2-2-2-2-2-2-------
A|---7-7-7-7-7-7-7--2-2-2-2-2-2-2-2--3-3-3-3-3-3-3-3--2-2-2-2-2-2-2-2-------
E|---5-5-5-5-5-5-5-------------------3-3-3-3-3-3-3-3--0-0-0-0-0-0-0-0-------

e|--------------------------------------------------------------------------
B|--------------------------------------------------------------------------
G|-------------------------------------7-7-7-7-7-7-7-7----------------------
D|---5-5-5-5-5-5-5-5--2-2-2-2-2-2-2-2--7-7-7-7-7-7-7-7--7-7-7-7-7-7-7-7-----
A|---5-5-5-5-5-5-5-5--2-2-2-2-2-2-2-2--5-5-5-5-5-5-5-5--7-7-7-7-7-7-7-7-----
E|---3-3-3-3-3-3-3-3--0-0-0-0-0-0-0-0-------------------5-5-5-5-5-5-5-5-----

Verse 2- Repeat Verse 1 but leave open on last time through

Chorus-2X

Bridge-2X
e|--------------------------------------------------------------------------
B|--------------------------------------------------------------------------
G|----------------------2-2-2-2-2-2-2-2-----------------2-2-2-2-2-2-2-2-2---
D|---2-2-0-2-2-0-2-2-0--2-2-2-2-2-2-2-2--3-3-3-3-3-3-3--2-2-2-2-2-2-2-2-2---
A|---2-2---2-2---2-2----0-0-0-0-0-0-0-0--3-3-3-3-3-3-3--0-0-0-0-0-0-0-0-0---
E|---0-0---0-0---0-0---------------------1-1-1-1-1-1-1----------------------

Chorus-2X


Alright i'm still not sure about the bridge i thought it sounded pretty good,
thanks to the annoynomous tabber off mxtabs for help with the bridge.
Comments