Something Corporate - Ruthless Chords & Tabs

 

Ruthless Chords & Tabs

Something Corporate Chords & Tabs

Version: 1 Type: Tab 0 ratings
1 star 2 stars 3 stars 4 stars 5 stars
comments

Ruthless Tab

Ruthless
Something Corporate
North

standard tuning

intro/verse
guitar 1
e-------------------------------------
B--------------9----------------------
G------------------8----------6-------
D-----6-------------------------------
A-------------------------------------
E-------------------------------------

guitar 2
e-------------------------------------
B-------------------------------------
G-------------------6-----------------
D-----4-------------6-----------------
A-----4-------------4-----------------
E-----2-------------------------------


prechorus
guitar 1
e--------------------------------------
B--------------------------------------
G--8-------11--------------------------
D--8-------11--------8-------6-------4-
A--6--------9--------8-------6-------4-
E--------------------6-------4-------2-
[ Tab from: http://www.guitartabs.cc/tabs/s/something_corporate/ruthless_tab.html ]
guitar 2
e--------------------------------------
B--------------------------------------
G--8-----------------------------------
D--8--------4--------8-------6-------4-
A--6--------4--------8-------6-------4-
E-----------2--------6-------4-------2-


chorus
guitar 1 (this could be piano)
e--------16-----------16------
B-----14----14-----14----14---
G--13------------13-----------
D-----------------------------
A-----------------------------
E-----------------------------

guitar 2
e----------------------------------------
B----------------------------------------
G--6------6------------------------------
D--6------6------4------8------6------4--
A--4------3------4------8------6------4--
E----------------2------6------4------2--


bridge
guitar 1
e--------------------------------------
B--4---4---4---4---4---4---4---4---4---
G----6---6---6---6---6---6---6---6---6-
D--------------------------------------
A--------------------------------------
E--------------------------------------
guitar 2
e--------------------------------------
B--------------------------------------
G--8-------11--------------------------
D--8-------11--------8-------6-------4-
A--6--------9--------8-------6-------4-
E--------------------6-------4-------2-
Comments