Something Corporate - Runaway Chords & Tabs

 

Runaway Chords & Tabs

Something Corporate Chords & Tabs

Version: 1 Type: Tab 0 ratings
1 star 2 stars 3 stars 4 stars 5 stars
comments

Runaway Tab

   
ALL GUITAR 1 parts

Verse
e|------------------|
B|------------------|
G|-4----7-----------|
D|-4----7----5----2-| x2
A|-2----5----5----2-|
E|-----------3----0-|

Pre-chorus
e|-----------------------------------------------------------------|
B|-----------------------------------------------------------------|
G|-----------------------------------------------------------------|
D|-5-5-5-5-5-5-5-5-4-4-4-4-4-4-4-4-2-2-2-2-2-2-2-2-2-2-2-2-2-2-2-2-|
A|-5-5-5-5-5-5-5-5-4-4-4-4-4-4-4-4-2-2-2-2-2-2-2-2-2-2-2-2-2-2-2-2-|
E|-3-3-3-3-3-3-3-3-2-2-2-2-2-2-2-2-0-0-0-0-0-0-0-0-0-0-0-0-0-0-0-0-|

Chorus
e|-----------------------------------------|
B|-----------------------------------------|
G|-4---4---4-4-7---7---7-7-2-2-0-4---4-4-4-|
D|-4---4---4-4-7---7---7-7-2-2-0-4---4-4-4-| x4
A|-2---2---2-2-5---5---5-5-0-0-0-2---2-2-2-|
E|-----------------------------------------|
[ Tab from: http://www.guitartabs.cc/tabs/s/something_corporate/runaway_tab.html ]
Bridge
e|-------------------------------------------------------------------|
B|-------------------------------------------------------------------|
G|---------------------------------4444-2---4444-2---4444-2---4444-2-|
D|-5-5-5-5-5-5-5-5-7-7-7-7-7-7-7-7-4444-----4444-----4444-----4444---| x2
A|-5-5-5-5-5-5-5-5-7-7-7-7-7-7-7-7-2222-----2222-----2222-----2222---|
E|-3-3-3-3-3-3-3-3-5-5-5-5-5-5-5-5-----------------------------------|

e|---------------------------|
B|---------------------------|
G|---------------------------|
D|-5-5-5-5-5-5-5-5-7-7-7-7-7-|
A|-5-5-5-5-5-5-5-5-7-7-7-7-7-|
E|-3-3-3-3-3-3-3-3-5-5-5-5-5-|

End on
E|-9-7-| x12 |-9-7-5-4~|
B|-----|     |---------|
G|-----|     |---------|
D|-----|     |---------|
A|-----|     |---------|
E|-----|     |---------|

ORDER:
---Verse
---Pre-chorus
---Chorus
---Verse
---Pre-chorus
---Chorus
---Bridge
---Chorus
---End on

Working on guitar 2's parts, ill get it soon, i promised you guys this tab, so here
it is! HAVE FUN. Out of Reach 4 LiFE!
Comments