Something Corporate - Punk Rock Princess Chords & Tabs

 

Punk Rock Princess Chords & Tabs

Something Corporate Chords & Tabs

Version: 6 Type: Tab 0 ratings
1 star 2 stars 3 stars 4 stars 5 stars
comments

Punk Rock Princess Tab

Song : Punk Rock Princess
Band : Something Corporate
Tabbed By : Diamond Jerry (Raptureboy182@yahoo.com)

Standard Tuning
-----------------------------------------------------------------------------

(INTRO)
 e-------------------------------------------------------------------|
 B-------------------------------------------------------------------|
 G--4444--5555--77777777---------------------------------------------| 
 D--4444--5555--77777777----(Repeat 4x)------------------------------| 
 A--2222--3333--55555555---------------------------------------------|
 E-------------------------------------------------------------------|  


(VERSE)
 e-------------------------------------------------------------------|
 B-------------------------------------------------------------------|
 G--^^^^--^^^^--^^^^^^^^--------------------4444--5555--77777777-----|
 D--4444--5555--77777777--(Repeat 7x)-then--4444--5555--77777777-----| 
 A--2222--3333--55555555--------------------2222--3333--55555555-----|
 E-------------------------------------------------------------------| 


(PRE-CHORUS)
 e-------------------------------------------------------------------|
 B-------------------------------------------------------------------|
 G------------------555555555555-------------/-(make slide here!)----|
 D---555555555555---555555555555-------------/-----------------------| 
 A---555555555555---333333333333-------------/-----------------------|
 E---333333333333----------------------------------------------------|  


(CHORUS)
 e-------------------------------------------------------------------|
 B-------------------------------------------------------------------|
 G--4444--------77777777---------------------------------------------| 
 D--4444--5555--77777777-----(Repeat 4x)-----------------------------| 
 A--2222--5555--55555555---------------------------------------------|
 E--------3333-------------------------------------------------------|  

[ Tab from: http://www.guitartabs.cc/tabs/s/something_corporate/punk_rock_princess_tab_ver_6.html ]
(VERSE2)             (I'm just turn the piano sound into guitar riff)
 e-------------------------------------------------------------------|
 B--------------------------------------(-----7~)--------------------|
 G--^^^^--^^^^--^^^^^^^^----------------(-7-7---)--------------------|
 D--4444--5555--77777777--(Repeat 6x)--------------------------------| 
 A--2222--3333--55555555---------------------------------------------|
 E-------------------------------------------------------------------|

(Little riff)
 e-------------------------------------------------------------------|
 B--3~-0-3h5--3------------------------------------------------------|
 G-------------------------------------------------------------------|
 D-------------------------------------------------------------------| 
 A-------------------------------------------------------------------|
 E-------------------------------------------------------------------|  

(Cont.Verse 2)
 e---------------------------------------------------------------------|
 B------------------------------------(-----7~)------------------------|
 G--^^^^--^^^^--^^^^^^^^--------------(-7-7---)------------------------|
 D--4444--5555--77777777--(Repeat 3x)-------------4444--5555--77777777-| 
 A--2222--3333--55555555--------------------------2222--3333--55555555-|
 E---------------------------------------------------------------------|

(Repeat Pre-Chorus and Chorus 2x)

(INTERLUDE)
 e----------------------------------------------------------(5..)-riff-|
 B----------------------------------------------------------(5..)------|
 G---X-9~----X-7~------------------------------------------------------|
 D---X-9~----X-7~----(Repeat 2x) then----7777777777777777--------------| 
 A---X-7~----X-5~------------------------7777777777777777--------------|
 E---------------------------------------5555555555555555--------------| 

(Repeat Chorus and End on D)

Note: This song maybe different from the album coz i downloaded it from mp3.com
------------------------------------------------------------------------------
Any comments or corrections,just mail me to Raptureboy182@yahoo.com/ICQ #115343571
Comments