Something Corporate - Punk Rock Princess Chords & Tabs

 

Punk Rock Princess Chords & Tabs

Something Corporate Chords & Tabs

Version: 5 Type: Tab 0 ratings
1 star 2 stars 3 stars 4 stars 5 stars
comments

Punk Rock Princess Tab

   
Song name: Punk Rock Princess.
Artist: Something Corporate.
Album: leaving trough the window.
Tabbed by: Rodrigo Villanueva.

Intro: 

e|-----------------------------------------------------------------------------|
b|-----------------------------------------------------------------------------|
g|-4-4-4-4--5-5-5-5--7-7-7-7-7-7-7-7-------------------------------------------|
D|-4-4-4-4--5-5-5-5--7-7-7-7-7-7-7-7-------------------------------------------|
A|-2-2-2-2--3-3-3-3--5-5-5-5-5-5-5-5-------------------------------------------|
E|-----------------------------------------------------------------------------|

Verse:  (palm mute)

e|-----------------------------------------------------------------------------|
b|-----------------------------------------------------------------------------|
g|-4-4-4-4--5-5-5-5--7-7-7-7-7-7-7-7-------------------------------------------|
D|-4-4-4-4--5-5-5-5--7-7-7-7-7-7-7-7-------------------------------------------|
A|-2-2-2-2--3-3-3-3--5-5-5-5-5-5-5-5-------------------------------------------|
E|-----------------------------------------------------------------------------|

Pre-chorus: 
[ Tab from: http://www.guitartabs.cc/tabs/s/something_corporate/punk_rock_princess_tab_ver_5.html ]
e|-----------------------------------------------------------------------------|
b|-----------------------------------------------------------------------------|
g|--------------------------------5-5-5-5-5-5-5-5-5-5-5-5-5-5-5----------------|
D|-5-5-5-5-5-5-5-5-5-5-5-5-5-5-5--5-5-5-5-5-5-5-5-5-5-5-5-5-5-5----------------|
A|-5-5-5-5-5-5-5-5-5-5-5-5-5-5-5--3-3-3-3-3-3-3-3-3-3-3-3-3-3-3----------------|
E|-3-3-3-3-3-3-3-3-3-3-3-3-3-3-3-----------------------------------------------|

Chorus: 

e|-----------------------------------------------------------------------------|
b|-----------------------------------------------------------------------------|
g|-4-4-4---------------7-7-7-7-7-7-7-7-7---------------------------------------|
D|-4-4-4--5-5-5-5-5-5--7-7-7-7-7-7-7-7-7---------------------------------------|
A|-2-2-2--5-5-5-5-5-5--5-5-5-5-5-5-5-5-5---------------------------------------|
E|--------3-3-3-3-3-3----------------------------------------------------------|

Bridge: 

e|-----------------------------------------------------------------------------|
b|-----------------------------------------------------------------------------|
g|-4-4-4-4--7-7-7-7--4-4-4-4--7-7-7-7------------------------------------------|
D|-4-4-4-4--7-7-7-7--4-4-4-4--7-7-7-7--7-7-7-7-7-7-7-7-7-7-7-7-7---------------|
A|-2-2-2-2--5-5-5-5--2-2-2-2--5-5-5-5--7-7-7-7-7-7-7-7-7-7-7-7-7---------------|
E|-------------------------------------5-5-5-5-5-5-5-5-5-5-5-5-5---------------|

End on:

e|---|
b|---|
g|-7-|
D|-7-|
A|-5-|
E|---|

Song Order:

Intro:      (4x)
Verse:      (8x)
Pre-chorus: (1x)
Chorus:     (4x)
Intro:      (2x)
Verse:      (8x)
Pre-chorus: (1x)
Chorus:     (8x)
Bridge:     (1x)
Chorus:     (14x)
Comments