Something Corporate - Punk Rock Princess Chords & Tabs

 

Punk Rock Princess Chords & Tabs

Something Corporate Chords & Tabs

Version: 4 Type: Tab 0 ratings
1 star 2 stars 3 stars 4 stars 5 stars
comments

Punk Rock Princess Tab

   
PUNK ROCK PRINCESS - Something Corporate

intro:
e:-----------------------------------------------
b:-----------------------------------------------
g:----------------------------------------------- x4
d:-9-9-9-9--10-10-10-10--12-12-12-12-12-12-12-12-
b:-9-9-9-9--10-10-10-10--12-12-12-12-12-12-12-12-
E:-7-7-7-7--8--8--8--8---10-10-10-10-10-10-10-10-


verse (palm muted):
e:-----------------------------------------------
b:-----------------------------------------------
g:----------------------------------------------- 
d:-9-9-9-9--10-10-10-10--12-12-12-12-12-12-12-12- x7
b:-9-9-9-9--10-10-10-10--12-12-12-12-12-12-12-12-
E:-7-7-7-7--8--8--8--8---10-10-10-10-10-10-10-10-

and after the seventh time, play the intro once.

prechorus:
[ Tab from: http://www.guitartabs.cc/tabs/s/something_corporate/punk_rock_princess_tab_ver_4.html ]
e:---      ---
b:---      ---
g:---      ---
d:-5- x16  -10 x16
a:-5-      -10
E:-3-      -8-

chorus:

e----------------------------------------
b----------------------------------------
g----4-4-4-4--2-2-2-2--7-7-7-7-7-7-7-7--- x5
d----4-4-4-4--2-2-2-2--7-7-7-7-7-7-7-7---
a----2-2-2-2--0-0-0-0--5-5-5-5-5-5-5-5---
e----------------------------------------

bridge:

e:------------
b:------------
g:------------ x4
d:-12-12-12-12
a:-12-12-12-12
E:-10-10-10-10
(on bridge, plam mute the first three notes,
 then let the fourth one ring.)


Intro: x4
Verse: x8
Pre Chorus: x1
Chorus: x5
Verse: x8
Pre Chorus: x1
Chorus: x10
Bridge: x4
Chorus: x15

Any questions or hate mail... email me at incubusdude17@hotmail.com
Comments