Something Corporate - Punk Rock Princess Chords & Tabs

 

Punk Rock Princess Chords & Tabs

Something Corporate Chords & Tabs

Version: 3 Type: Tab 0 ratings
1 star 2 stars 3 stars 4 stars 5 stars
comments

Punk Rock Princess Tab

this song rules dude!
Intro:
E---------------------------------------------------------------
b---------------------------------------------------------------
g---------------------------------------------------------------
d----9-9-9-9--10-10-10-10-12-12-12-12-12-12-12-12--------x4-----
a----9-9-9-9--10-10-10-10-12-12-12-12-12-12-12-12--------x4-----
e----7-7-7-7--8--8--8--8--10-10-10-10-10-10-10-10--------x4-----
               verse is the same but palm muted
[ Tab from: http://www.guitartabs.cc/tabs/s/something_corporate/punk_rock_princess_tab_ver_3.html ]
Pre-chorus thing
e----------------------------
b----------------------------
g----------------------------
d----5---x8------10----x8----
a----5---x8------10----x8----
e----3---x8------8-----x8----

Chorus:
e---------------------------------------------------------------
b---------------------------------------------------------------
g----4-4-4-4--2-2-2-2--7-7-7-7-7-7-7-7--------------------------
d----4-4-4-4--2-2-2-2--7-7-7-7-7-7-7-7--------------------------
a----2-2-2-2--0-0-0-0--5-5-5-5-5-5-5-5--------------------------
e---------------------------------------------------------------
     do that how many times you need to through the chorus
  by the way new found glory and something corporate supporting really is amazing!
peace dudes
Comments