Something Corporate - Punk Rock Princess Chords & Tabs

 

Punk Rock Princess Chords & Tabs

Something Corporate Chords & Tabs

Version: 2 Type: Tab 0 ratings
1 star 2 stars 3 stars 4 stars 5 stars
comments

Punk Rock Princess Tab

   
----------------------------------------------------------------------
	      Punk Rock Princess - Something Corporate
----------------------------------------------------------------------

By:DoubleAron

Hey, this is my first "real" tab so I don't really think it's exactly right or anything like that.
but it's a great song and deserves some recognition. I also missed out the piano in the background,
so if you have any corrections(and I'm sure there are lots) let me know at a_ramcharitar@hotmail.com..peace!

verses:
e|----------------------------------------------------------------|
B|----------------------------------------------------------------|
G|----4---5---7--7------------------------------------------------|
D|----4---5---7--7------------------------------------------------|
A|----2---3---5--5------------------------------------------------|
E|----------------------------------------------------------------|

chorus:
You can be my

   punk    rock   princess
      D     A     B      G           f#   G
e|----5-----5-----2------3-----------2----3----------------------|
B|----7-----5-----4------3-----------2----3----------------------|
G|----7-----6-----4------4-----------3----4----------------------|
D|----7-----7-----4------5-----------4----5----------------------|
A|----5-----7-----2------5-----------4----5----------------------|
E|----------5------------3-----------2----3----------------------|
[ Tab from: http://www.guitartabs.cc/tabs/s/something_corporate/punk_rock_princess_tab_ver_2.html ]
verse:
Maybe when the room is empty 
Maybe when the bottles full 
Maybe when the door gets broke down love can break in 
Maybe when I'm done with thinking 
Maybe you can think me whole 
Maybe when I'm done with endings this can begin, 
this can begin, this can begin 

Chorus:
If you could be my punk rock princess 
I would be your garage band king 
You could tell me why you just don't fit in 
and how you're gonna be somethin 

verse:
Maybe when your hair gets darker 
Maybe when your eyes get wide 
Maybe when the walls are smaller there will be more space 
Maybe when I'm not so tired 
Maybe you could step inside 
Maybe when I look for things that I can't replace, 
I can't replace, I can't replace 

If you could be my punk rock princess 
I would be your garage band king 
You could tell me why you just don't fit in 
and how you're gonna be somethin 

If I could be your first real heartache 
I would do it over again 
If you could be my punk rock princess 
I would be your heroin 

I never thought you'd last 
I never dreamed you would 
You watch your life go past 
You wonder if you should 

And you should be my punk rock princess 
so I would be your garage band king 
You could tell me why you just don't fit in 
and how your gunna be somethin 

If I could be your first real heartache 
I would do it over again 
If you could be my punk rock princess 
I would be your heroin 

Woah, you know 
you only burn my friendships 
Woah, you know 
you just can't let it sink in 

You could be my heroin 
You could be my heroin

Comments