Something Corporate - Punk Rock Princess Chords & Tabs

 

Punk Rock Princess Chords & Tabs

Something Corporate Chords & Tabs

Version: 1 Type: Tab 3 ratings
1 star 2 stars 3 stars 4 stars 5 stars
comments

Punk Rock Princess Tab

Artist: Something Corporate
Song: Punkrock Princess
Album: Audioboxer
Tabbed By: AngusYoungFan

Theres Nothing wrong with Joe's Version I just thought
I should add in bits he left out and like he said this 
is pretty easy just powerchords :)
STANDARD TUNING

Intro:

E-----------------------------------------------------
B-----------------------------------------------------
G-----------------------------------------------------
D---9--9--9--9--10-10-10-10-12-12-12-12-12-12-12-12---X4
A---9--9--9--9--10-10-10-10-12-12-12-12-12-12-12-12---
E---7--7--7--7--8--8--8--8--10-10-10-10-10-10-10-10---

Verse 1
E-----------------------------------------------------
B-----------------------------------------------------
G-----------------------------------------------------
D---9--9--9--9--10-10-10-10-12-12-12-12-12-12-12-12---X8
A---9--9--9--9--10-10-10-10-12-12-12-12-12-12-12-12---
E---7--7--7--7--8--8--8--8--10-10-10-10-10-10-10-10---
PM..................................................

Verse 1 Guitar backing lead fill 1 same except x 7 then
E-------
B-------
G-7-----
D-x-----X7
A-5-----
E-------



Pre Chorus:
The chord below sounds just that little bit closer to the original 
chord
E---3--3--3--3--3--3--3--3--3--3--3--3--3--3--3--3----
B---3--3--3--3--3--3--3--3--3--3--3--3--3--3--3--3----
G---4--4--4--4--4--4--4--4--4--4--4--4--4--4--4--4----
D---5--5--5--5--5--5--5--5--5--5--5--5--5--5--5--5----
A---5--5--5--5--5--5--5--5--5--5--5--5--5--5--5--5----
E---3--3--3--3--3--3--3--3--3--3--3--3--3--3--3--3----

E-----------------------------------------------------
B-----------------------------------------------------
G-----------------------------------------------------
D--10-10-10-10-10-10-10-10-10-10-10-10-10-10-10-10----
A--10-10-10-10-10-10-10-10-10-10-10-10-10-10-10-10----
E--8--8--8--8--8--8--8--8--8--8--8--8--8--8--8--8-----then slide pick into chorus

Chorus:

E-----------------------------------------------------
B-----------------------------------------------------
G------------77777777---------------------------------
D--9999-5555-77777777---------------------------------X4
A--9999-5555-55555555---------------------------------
E--7777-3333------------------------------------------

E-----------------------------------------------------
B-----------------------------------------------------
G-----------------------------------------------------
D---9--9--9--9--10-10-10-10-12-12-12-12-12-12-12-12---X2 without lyrics X 8 with lyrics and
A---9--9--9--9--10-10-10-10-12-12-12-12-12-12-12-12---Verse 2 lead fill on 4th repeat and verse one 
E---7--7--7--7--8--8--8--8--10-10-10-10-10-10-10-10---backing fill on eigth repeat
PM.................................................
Verse 2 Lead Fill come in on fourth time with lyrics.
Strike opening note with volume backed off then turn up
For a violining effect.For the 1/4 bend bend very slowly
[ Tab from: http://www.guitartabs.cc/tabs/s/something_corporate/punk_rock_princess_tab.html ]
E-----------------------------------------------------
B-----------------------------------------------------
G--7(1/4b)----7h9p7-----------------------------------
D----------9------------------------------------------
A-----------------------------------------------------
E----------------------------------------------------

Pre Chorus
E---3--3--3--3--3--3--3--3--3--3--3--3--3--3--3--3----
B---3--3--3--3--3--3--3--3--3--3--3--3--3--3--3--3----
G---4--4--4--4--4--4--4--4--4--4--4--4--4--4--4--4----
D---5--5--5--5--5--5--5--5--5--5--5--5--5--5--5--5----
A---5--5--5--5--5--5--5--5--5--5--5--5--5--5--5--5----
E---3--3--3--3--3--3--3--3--3--3--3--3--3--3--3--3----

E-----------------------------------------------------
B-----------------------------------------------------
G-----------------------------------------------------
D--10-10-10-10-10-10-10-10-10-10-10-10-10-10-10-10----
A--10-10-10-10-10-10-10-10-10-10-10-10-10-10-10-10----
E--8--8--8--8--8--8--8--8--8--8--8--8--8--8--8--8-----then slide pick into chorus

Chorus:

E-----------------------------------------------------
B-----------------------------------------------------
G------------77777777---------------------------------
D--9999-5555-77777777---------------------------------X8
A--9999-5555-55555555---------------------------------
E--7777-3333------------------------------------------

Bridge:


E---------(0)----------(0)----------------------------
B---------(0)----------(0)----------------------------
G---------(9)----------(7)----------------------------
D---------(9)----------(7)----------------------------X2
A---------(7)----------(5)----------------------------
E--0-0-0--(0)----0-0-0-(0)----------------------------
PM......       PM.....

Bridge Guitar 2

E---------(0)----------(0)-------------(0)------------(0)---55555555
B---------(0)----------(0)-------------(0)------------(0)---00000000
G---------(9)----------(7)-------------(9)------------(7)-----------
D---------(9)----------(7)--X1---------(9)------------(7)-----------Then slide pick into chorus
A---------(7)----------(5)-------------(7)------------(5)-----------
E--0-0-0--(0)----0-0-0-(0)-------0-0-0-(0)------0-0-0-(0)-----------
PM......       PM.....         PM.....        PM.....

Chorus:

E-----------------------------------------------------
B-----------------------------------------------------
G------------77777777---------------------------------
D--9999-5555-77777777---------------------------------X13
A--9999-5555-55555555---------------------------------
E--7777-3333------------------------------------------

Finish on

Chorus:

E-----------------------------------------------------
B-----------------------------------------------------
G------------7777777(7)---------------------------------
D--9999-5555-7777777(7)---------------------------------x1
A--9999-5555-5555555(5)---------------------------------
E--7777-3333------------------------------------------
            PM......

Right thats it hope its all good and correct if you have any correction email me at
AngusYoungWannabe@hotmail.com Thanks 
Comments