Something Corporate - Punk Rock Princess Chords & Tabs

 

Punk Rock Princess Chords & Tabs

Something Corporate Chords & Tabs

Version: 2 Type: Bass Tab 0 ratings
1 star 2 stars 3 stars 4 stars 5 stars
comments

Punk Rock Princess Bass Tab

   
----------------------------------------------------------------------------
			     Punk Rock Princess -
                                     Something Corporate
----------------------------------------------------------------------------

Tabbed By : rei
e-mail: radicalrooroo@hotmail.com

Tuning: EADG
Intro x4
G---------------------------------|
D---------------------------------|
A-2-2-2-2-3-3-3-3-5-5-5-5-5-5-5-5-|
E---------------------------------|

Verse x8
G---------------------------------|
D---------------------------------|
A-2-2-2-2-3-3-3-3-5-5-5-5-5-5-5-5-|
E---------------------------------|

Pre Chorus x1
G-------------------------------------------------|
D-------------------------------------------------|
A-------------------------3-3-3-3-3-3-3-3-3-3-3-3-|
E-3-3-3-3-3-3-3-3-3-3-3-3-------------------------|

Chorus x4
G---------------------------------|
D---------------------------------|  
A-2-2-2-2---------5-5-5-5-5-5-5-5-|
E---------3-3-3-3-----------------|
[ Tab from: http://www.guitartabs.cc/tabs/s/something_corporate/punk_rock_princess_btab_ver_2.html ]
Verse x10
G---------------------------------|
D---------------------------------|
A-2-2-2-2-3-3-3-3-5-5-5-5-5-5-5-5-|
E---------------------------------|

Pre Chorus x1
G-------------------------------------------------|
D-------------------------------------------------|
A-------------------------3-3-3-3-3-3-3-3-3-3-3-3-|
E-3-3-3-3-3-3-3-3-3-3-3-3-------------------------|

Chorus x8
G---------------------------------|
D---------------------------------|  
A-2-2-2-2---------5-5-5-5-5-5-5-5-|
E---------3-3-3-3-----------------|

Bridge x1
G---------------------------------------|
D---------------------------------------|  
A-------7*-------5*-------7*-------5*---| *Let ring
E-5-5-5----3-3-3----5-5-5----3-3-3------|

G-------------------------|
D-------------------------|
A-7-7-7-7-7-7-7-7-7-7-7-7-|
E-------------------------|

Outro x13
G---------------------------------|
D---------------------------------|  
A-2-2-2-2---------5-5-5-5-5-5-5-5-|
E---------3-3-3-3-----------------|


On the 14th time play:
G--------------------------------|
D--------------------------------|
A-2-2-2-2---------------------5*-| *Let Ring
E---------3-3-3-3-3x-3x-3x-3x----| xMute

Be Nice It's My First And Only ^.-
Comments