Something Corporate - Only Ashes Chords & Tabs

 

Only Ashes Chords & Tabs

Something Corporate Chords & Tabs

Version: 1 Type: Tab 0 ratings
1 star 2 stars 3 stars 4 stars 5 stars
comments

Only Ashes Tab

Intro
E|------------------------||
B|------------------------||
G|--55555545--------------|| listen to the song for how many times
D|------------------------||
A|------------------------||
E|------------------------||
Not to sure about the intro but it works

Verse
E|-----------------------------------------||
B|-----------------------------------------||
G|------------555555555--------------------||
D|--77777777--555555555--5555555555555555--|| x4
A|--77777777--333333333--5555555555555555--||
E|--55555555-------------3333333333333333--||
    XXXXXXXX  XXXXXXXXX  XXXXXXXXXXXXXXXX

Pre-Chorus
E|-------------------------------------||
B|-------------------------------------||
G|-----------5-5-5-5-------------------||
D|--7-7-7-7--5-5-5-5--5-5-5-5-5-5-5-5--|| x1
A|--7-7-7-7--3-3-3-3--5-5-5-5-5-5-5-5--||
E|--5-5-5-5-----------3-3-3-3-3-3-3-3--||

E|-------------------------------------||
B|-------------------------------------||
G|-----------5-5-5-5-------------------||
D|--7-7-7-7--5-5-5-5--5-5-5-3-3-3-3-3--|| x1
A|--7-7-7-7--3-3-3-3--5-5-5-5-3-3-3-3--||
E|--5-5-5-5-----------3-3-3-3-1-1-1-1--||
[ Tab from: http://www.guitartabs.cc/tabs/s/something_corporate/only_ashes_tab.html ]
Chorus
E|---------------------------------------------------------------------||
B|---------------------------------------------------------------------||
G|---------------------------------------------------------------------||
D|--7777777777777777--5555555555555555--3333-3--3333-3--3333-3--3333-3-|| x2
A|--7777777777777777--5555555555555555--3333-3--3333-3--3333-3--3333-3-||
E|--5555555555555555--3333333333333333--1111-1--1111-1--1111-1--1111-1-||
                                        XXXX    XXXX    XXXX    XXXX

Repeat Intro

Repeat Verse

Repeat The Second Part Of The Pre-Chorus Only

Repeat Chorus

E|---------------------------------||
B|---------------------------------||
G|--5-4-5-4--5---------------------||
D|---------------------------------||
A|---------------------------------||
E|---------------------------------||

Repeat Intro

Repeat Chorus

End On
E|--------------------------||
B|--------------------------||
G|--------------------------||
D|--7~----------------------||
A|--7~----------------------||
E|--5~----------------------||



Guitar 2



Intro
E|--------------------------||
B|--------------------------||
G|--------------------------||
D|--7------3----------------|| x2
A|--7-x32--3-x32------------||
E|--5------1----------------||

Verse: Same As Guitar 1

Pre-Chorus: Same As Guitar 1

Chorus: Same As Guitar 1

Repeat Intro 1-Time Instead Of 2

Repeat Verse

Repeat Second Part Of Pre-Chorus

Repeat Chorus

E|---------------------------------||
B|---------------------------------||
G|---------------------------------||
D|--7~--------3~-------------------|| x1
A|--7~--------3~-------------------||
E|--5~--------1~-------------------||

Repeat Intro 1-Time Instead Of 2

Repeat Chorus

End on
E|--------------------------||
B|--------------------------||
G|--------------------------||
D|--7~----------------------||
A|--7~----------------------||
E|--5~----------------------||
Comments