Something Corporate - Only Ashes Chords & Tabs

 

Only Ashes Chords & Tabs

Something Corporate Chords & Tabs

Version: 1 Type: Bass Tab 0 ratings
1 star 2 stars 3 stars 4 stars 5 stars
comments

Only Ashes Bass Tab

Tuning: EADG

Intro x2
G------------------------------------------|
D------------------------------------------|
A-0~-----------------3~--------------------|
E-------------------------------3~---------|

Verse x4                    1st&3rd   2nd     4th
G--------------------------|-------|-------|--------|
D--------------------------|-------|-------|--------|
A---------33333333---------|-5---3-|-0-532-|--------|
E-55555555--------33333333-|-------|-------|33333333|

Prechorus x1                               
G------------------------------------------|
D------------------------------------------|
A-0~---------3~----------------------------|
E-----------------------3~-----------------|
                             
G------------------------------------------|
D------------------------------------------|
A-0~---------3~----------------------------|
E-----------------------3~--------111111111|

Chorus x2
G------------------------------------------|
D------------------------------------------|
A-00000000---------------------------------|
E---------33333333-xxxx1-xxxx1-xxxx1-xxxx1-|

Intro x1
G------------------------------------------|
D------------------------------------------|
A-0~-----------------3~--------------------|
E-------------------------------3~---------|
[ Tab from: http://www.guitartabs.cc/tabs/s/something_corporate/only_ashes_btab.html ]
Verse x4                    1st&3rd   2nd     4th
G--------------------------|-------|-------|--------|
D--------------------------|-------|-------|--------|
A---------33333333---------|-5---3-|-0-532-|--------|
E-55555555--------33333333-|-------|-------|33333333|

Prechorus x1
G------------------------------------------|
D------------------------------------------|
A-0~---------3~----------------------------|
E-----------------------3~--------311111111|

Chorus x2
G------------------------------------------|
D------------------------------------------|
A-00000000---------------------------------|
E---------33333333-xxxx1-xxxx1-xxxx1-xxxx1-|

Bridge x1 (come in with distorted guitar)
G------------------------------------------|
D------------------------------------------|
A-----------------3333333333333333---------|
E-5555555555555555-------------------------|

Intro x1
G------------------------------------------|
D------------------------------------------|
A-0~-----------------3~--------------------|
E-------------------------------3~---------|

Chorus x2                                   end on
G------------------------------------------|--------|
D------------------------------------------|--------|
A-00000000---------------------------------|--------|
E---------33333333-xxxx1-xxxx1-xxxx1-xxxx1-|-5~-----|
Comments