Something Corporate - Me And The Moon Chords & Tabs

 

Me And The Moon Chords & Tabs

Something Corporate Chords & Tabs

Version: 1 Type: Chords 0 ratings
1 star 2 stars 3 stars 4 stars 5 stars
comments

Me And The Moon Chords

   
----------------------------------------------------------------------------
			 Me and the Moon - Something Corporate
----------------------------------------------------------------------------

Tabbed by: Nathan Alexander
Email:phree89@yahoo.com

Tuning: Standard


K, very simple song (though awesome). I'm surprised it wasn't already tabbed.

Well the chords for the Verse are (it switches between the two):
  Gb  A  E 
e|----0--0-|
B|----0--0-|
G|----6--1-|
D|-6--7--2-|
A|-4--7--2-|
E|-2--5--0-|
[ Tab from: http://www.guitartabs.cc/tabs/s/something_corporate/me_and_the_moon_crd.html ]
  Gb  A  E  B 
e|----0--0--0-|
B|----0--0--0-|
G|----6--1--4-|
D|-6--7--2--4-|
A|-4--7--2--2-|
E|-2--5--0----|


Keep the Gb going for the whole first bar and then just play the other ones at the right time, not hard.

Prechorus:
  Gb A  Dbm  B
e|-------9---7-|
B|-------9---7-|
G|-------9---8-|
D|-6--9--11--9-|
A|-4--7--11--9-|
E|-2--5--9---7-|


Chorus/Break:

 Dbm  Bmj Gbmj
e|-4---2---2-|
B|-5---2---2-|
G|-6---4---3-|
D|-6---4---4-|
A|-4---2---4-|
E|---------2-|


And if you want to immitate Andy's piano with the guitar for the verse, all you have to do is play:

e|---------|
B|---------|
G|---4-----|
D|-6-x-6-4-|
A|-4-4-4-4-|
E|-2-2-2-2-|

Comments