Something Corporate - Letters To Noelle Chords & Tabs

 

Letters To Noelle Chords & Tabs

Something Corporate Chords & Tabs

Version: 1 Type: Tab 0 ratings
1 star 2 stars 3 stars 4 stars 5 stars
comments

Letters To Noelle Tab

Something Corporate - Letters to Noelle Guitar Solo
Grant Fiddyment (GMF05@aol.com)

You'll have to listen to the song for the rhythm (it's about 2:45 into it), but
I'm fairly sure the notes are right. Also, it sounds more like the song if you
transpose the solo up a string so that it starts on the G sting, but it's easier
to play this way.

h= hammer on
~= 1/2 bend (almost vibrato like)
[ Tab from: http://www.guitartabs.cc/tabs/s/something_corporate/letters_to_noelle_tab.html ]
e|-----------------------------------------------------------------------10
B|-------------------------10---8--7h8--10~~~---------7h8--10--------------
G|------7---9~~----7-------------------------------------------------------
D|7h9----------------------------------------------------------------------
A|-------------------------------------------------------------------------
E|-------------------------------------------------------------------------

e|-----12~~~~ 10---14----12-----
B|---------------------------12-
G|------------------------------
D|------------------------------
A|------------------------------
E|------------------------------
Comments