Something Corporate - Konstantine Chords & Tabs

 

Konstantine Chords & Tabs

Something Corporate Chords & Tabs

Version: 4 Type: Tab 0 ratings
1 star 2 stars 3 stars 4 stars 5 stars
comments

Konstantine Tab

   
Something Corporate - Konstantine
transcribed to guitar from piano

Intro/Verse
play around with these arpeggiations

   Bb				    Dm
E---------------------------------------------------------------------|
B---------------------------------------------------------------------|
G------3-------3-------3-------3--------2-------2-------2-------2-----|
D----3---3---3---3---3---3---3---3----3---3---3---3---3---3---3---3---|
A--1-------1-------1-------1--------5-------5-------5-------5---------|
E---------------------------------------------------------------------|
   Gm				   Eb
E---------------------------------------------------------------------|
B---------------------------------------------------------------------|
G------3-------3-------3-------3-------3-------3-------3-------3------|
D----3---3---3---3---3---3---3---3---3---3---3---3---3---3---3---3----|
A----------------------------------6-------6-------6-------6----------|
E--3-------3-------3-------3------------------------------------------|

Chorus:
   Treble	Bass
   Bb	      Dm, Eb, F, Bb
E--6-6-6-6--|-----------|
B--6-6-6-6--|-----------|
G--7-7-7-7--|-----------|
D--8-8-8-8--|--0-1------|
A--8-8-8-8--|--------1--|
E--6-6-6-6--|------1----|

End of Chorus:

E--6--5--3----5~--|
B--6--5--3----5~--|
G--7--5--3----5~--|
D--8--7--5----7~--|
A--8--7--5----7~--|
E--6--5--3----5~--|

Breakdown (bass only)

G---------------------------------------|
D-------------------/55555555-----------|  (play a lot)
A-----------55555555----------66666666--|
E--66666666-----------------------------|

Come in with these chords:
   Bb   Dm   Gm   Eb
E--6----5----3----6--|
B--6----6----3----8--|
G--7----7----3----8--|
D--8----7----5----8--|
A--8----5----5----6--|
E--6---------3-------|

Solo (played over Bb, Dm, Gm, Eb progression)
[ Tab from: http://www.guitartabs.cc/tabs/s/something_corporate/konstantine_tab_ver_4.html ]
E------------------------------------------------------------------------------|
B------------------------------------------------------------------------------|
G------------------------------------------------------------------------------|
D--8--7-8--7-8--7-8-7--8--7-8--7-8--7-8-7--8--7-8--7-8--7-8-10--8--7-8--7-8----|
A------------------------------------------------------------------------------|
E------------------------------------------------------------------------------|

Next few minutes is still Bb, Dm, Gm, Eb

Breakdown 2 (play around with picking)
   Bb				   Dm
E--6-------6-------6-------6-------5-------5-------5-------5--------|
B----6---6---6---6---6---6---6---6---6---6---6---6---6---6---6---6--|
G------3-------3-------3-------3-------7-------7-------7-------7----|
D-------------------------------------------------------------------|
A-------------------------------------------------------------------|
E-------------------------------------------------------------------|
   Gm				   Eb
E--6-------6-------6-------6-------6-------6-------6-------6--------|
B----6---6---6---6---6---6---6---6---6---6---6---6---6---6---6---6--|
G--------------------------------------8-------8-------8-------8----|
D------5-------5-------5-------5------------------------------------|
A-------------------------------------------------------------------|
E-------------------------------------------------------------------|

Rest of Song:
   Bb	    Dm	     Gm	      Eb
E--6-6-6-6--5-5-5-5--3-3-3-3--6-6-6-6--|
B--6-6-6-6--6-6-6-6--3-3-3-3--8-8-8-8--|
G--7-7-7-7--7-7-7-7--3-3-3-3--8-8-8-8--|
D--8-8-8-8--7-7-7-7--5-5-5-5--8-8-8-8--|
A--8-8-8-8--5-5-5-5--5-5-5-5--6-6-6-6--|
E--6-6-6-6-----------3-3-3-3-----------|

Back into another chorus:

Treble		Bass
   Bb	      Dm, Eb, F, Bb
E--6-6-6-6--|-----------|
B--6-6-6-6--|-----------|
G--7-7-7-7--|-----------|
D--8-8-8-8--|--0-1------|
A--8-8-8-8--|--------1--|
E--6-6-6-6--|------1----|

End of Chorus:

E--6--5--3----5~---6~--|
B--6--5--3----5~---6~--|
G--7--5--3----5~---7~--|
D--8--7--5----7~---8~--|
A--8--7--5----7~---8~--|
E--6--5--3----5~---6~--|

Fin.  No sweat

-Adam
andel@conncoll.edu
Comments