Something Corporate - Konstantine Chords & Tabs

 

Konstantine Chords & Tabs

Something Corporate Chords & Tabs

Version: 3 Type: Tab 0 ratings
1 star 2 stars 3 stars 4 stars 5 stars
comments

Konstantine Tab

			     Something Corporate - Konstantine
Tabbed by: Luke147

Tuning:DADGBE

This is just the intro which is similar to the piano in the song.
[ Tab from: http://www.guitartabs.cc/tabs/s/something_corporate/konstantine_tab_ver_3.html ]
E--------------------------------------------------------------------------|
B--------------------------------------------------------------------------|
G---3--3-----3--3-3---2--2-----2--3-3---3--3-3---3--3-3---3--3-----3--2----|
D--3--3--3--3--3-----0--0--0--0--0-----0--0-----0--0-----5--5--5--5--5--5--|
A-1--1--1--1--1--1--------------------------------------6--6--6--6--6--6---|
D-------------------0--0--0--0--0--0--5--5--5--5--5--5---------------------|

E--------------------------------------------------------------------------|
B--------------------------------------------------------------------------|
G---3--3-----3--3-3---2--2-----2--3-3---2--3-3---2--3-3---2--3-3---3--3-3--|
D--3--3--3--3--3-----0--0--0--0--0-----0--0-----0--0-----5--5-----5--5-----|
A-1--1--1--1--1--1--------------------------------------6--6--6--6--6--6---|
D-------------------0--0--0--0--0--0--5--5--5--5--5--5---------------------|
Comments