Something Corporate - Konstantine Chords & Tabs

 

Konstantine Chords & Tabs

Something Corporate Chords & Tabs

Version: 1 Type: Tab 3 ratings
1 star 2 stars 3 stars 4 stars 5 stars
comments

Konstantine Tab

   
Konstantine 
Something Corporate

Unbelievable song.....

Tune down one step

This is the intro and verses 1 (I can't imagine...) and 3 (And you
don't...)- just go through 2x. Verses 2 (And you tell me...) and 4 (I 
had these dreams...) just repeat the first 2 lines. Takes a little
while to get the timing down.

----------------------------------------------------------------------
-----1-----1-----1-----1-----1-----1-----0-----0-----0-----0-----1--1-
---0-----0-----------0-----0-----------0-----0-----------0-----0------
----------------------------------------------------------------------
-3-----3-----3-----3-----3-----3-----2-----2-----2-----2-----2--------
----------------------------------------------------------------------

----------------------------------------------------------------------
-----1-----1--1-------1-----1--1------1-----1--1------1------0--------
---0-----0----------0-----0---------0-----0---------0------0----------
----------------------------------------------------------------------
-0-----0----------0-----0---------------------------------------------
----------------------------------1-----1---------1------1------------

----------------------------------------------------------------------
-----1-----1-----1-----1-----1-----1-----0-----0-----0-----0-----1--1-
---0-----0-----------0-----0-----------0-----0-----------0-----0------
----------------------------------------------------------------------
-3-----3-----3-----3-----3-----3-----2-----2-----2-----2-----2--------
----------------------------------------------------------------------

----------------------------------------------------------------------
-----0-----1--1-----0-----1--1------0-----1--1------1-----1--1--------
---0--------------0---------------0---------------0-------------------
----------------------------------------------------------------------
-0-----0--------0-----0-----------------------------------------------
--------------------------------1-----1---------1-----1---------------

CHORUS
------------------3--------		Use full chords here or whatever
------------------1--------		works for you. Strum it out 
--5---------------0-------5		however you want.
--5-------3-------0-------5
--3-------3-------2-------3
--0-------1-------3--------
   And then you bring me home...	

------------------------------------------
------------------------------------------
--------------5---5---1-------------------
--------------5---5---2--------3---------5
--------------3---2---2--------3---------5
-------------------------------1---------3
..living room.		   ...have much room

For "Konstantine is walking..." the verse pattern will work, or just
play each as a chord.

PIANO SOLO - I probably screwed up counting out the middle part, but
it's pretty easy to hear that it's every eighth note
--------------------------------------------------------------------
-1--0--0--1--1--0--1--1---1---1---1---1---1---1---1---1---1---1---1-
-0--0--------0--------0-0---0---0---0---0---0---0-0-0---0---0---0---
--------------------------------------------------------------------
-3--2--------0------------------------------------3-----------------
----------------------1---------------------------------------------

--------------------------------------------------------------------
--1---1---1---0---0---0---0---0---0---1---1---1---1---1---1---1---1-
0---0---0---0-0-0---0---0---0---0---0---0---0-0-0---0---0---0---0---
--------------------------------------------------------------------
--------------2-------------------------------0---------------------
--------------------------------------------------------------------
[ Tab from: http://www.guitartabs.cc/tabs/s/something_corporate/konstantine_tab.html ]
--------------------------------------------------------------------
--1---1---1---1---1---1---1---1---1---1-----0h1---0-1--0h1---0-1----
0---0---0-0-0---0---0---0---0---0---0---0---0---0------0---0--------
--------------------------------------------------------------------
--------------------------------------------3----------3------------
----------1---------------------------------------------------------

--------------------------------------------------------------------
-0h1-0---0h1-0---0h1-0---0h1-0---0h1-0---1---1---1-0h1---0-1---0h1-3
-------0-------0-------0-------0-------0-0-0---0-------0------------
--------------------------------------------------------------------
-3-------2-------------------------------0--------------------------
-------------------------------------------------------------------1

----------------
---1---1---1---1
-0---0---0---0--
----------------
----------------
-----1----------

For "Is this because..." use the middle part of the piano solo-
you will hear it. It's the same except a couple of variations (3rd
fret on B string at "another" and "why"). Then........

-----------0--------------------------------------------------------
-1----3---------1---1---1---1---1---1---3---1---1---1---3---1---1--
--------------0---0---0---0---0---0---0---0---0---0---0---0---0---0
--------------------------------------------------------------------
-----------0--------------------------------------------------------
--------------------------------------------1-----------------------
when the first	   		   see   may not be      I'm not your

-3-------3-------3-------3-------3--------3-------3-------3-------
-----1-------1-------1-------1--------1-------1-------1-------1---
---0---0---0---0---0---0---0---0----0---0---0---0---0---0---0---0-
------------------------------------------------------------------
-3-------------------------------2--------------------------------
------------------------------------------------------------------
     star					Isn't that what

-3--------3--------3--------3-------------------------------------
-----1--------1--------1--------1----0---1---0---1---0---1---0---1
---0---0----0---0----0---0----0---0----0---0---0---0---0---0---0--
------------------------------------------------------------------
-0----------------------------------------------------------------
-------------------------------------1----------------------------
you said			     song meant

-------------------------------------------------------------------
-0h1---0-1---0h1---0-1---0h1---0-1----1---1-0h1---0-1-1---1---1---1
-0---0-------0---0-------0---0------0---0-------0-----0-0---0---0--
-------------------------------------------------------------------
-3-----------3-----------3-------2--------------------0------------
-------------------------------------------------------------------

--------------------------	Then back to the eighth note pattern
---1-0h1-3---1---1---1---1	for "If this is..."
-0---------0---0---0---0--
--------------------------
--------------------------
---------1----------------

At "I always catch..." and on, I strum these chords
C x3x01x
G/B(?)x2000x
Am x0221x
F 133211

e-8---8---......................7----7---
b---88--88......................--88---88
girl who got inside		all the

----x-----1------3---------------------------------------
----1-----1------3---------1---1h3-0h1-1-------------1---
----1-----2------4---4-----0-----------0-------------0---
----2-----3------5---------------------------------------
----0-----3------5---------0-------------------------3---
----x-----1------3---------------------1-----------------
we all  little  room	to love		   my Konstantine.


too much time on my hands...

sbjules10@aol.com
Comments