Something Corporate - If You C Jordan Chords & Tabs

 

If You C Jordan Chords & Tabs

Something Corporate Chords & Tabs

Version: 3 Type: Tab 0 ratings
1 star 2 stars 3 stars 4 stars 5 stars
comments

If You C Jordan Tab

Hope this helps. I just put down what sounded good to me, so hopefully it's close enough
that you can figure it out yourself.

E|------------------------------------------------|
B|---------------------------------7-7-------7-4--|
G|-----4-6b(8)r6-4-----4-6-4-6b(8)-----6b(8)-----6|
D|---6-------------6------------------------------|
A|------------------------------------------------|
E|------------------------------------------------|


E|-------------------------------------14-14------|
B|----4-7-4-----7-4-9-9-----15----15b(16)---------|
G|-4--------6-4---------16----16------------------|
D|------------------------------------------------|
A|------------------------------------------------|
E|------------------------------------------------|
[ Tab from: http://www.guitartabs.cc/tabs/s/something_corporate/if_you_c_jordan_tab_ver_3.html ]
E|------14----------------------------------------|
B|-(16)----(16)r15-14--14-16-14-------------------|
G|--------------------------------12--------------|
D|-----------------------------------14-12--------|
A|-----------------------------------------14-12--|
E|------------------------------------------------|


E|------------------------------------------------|
B|------------------------------------------------|
G|------------------------------------------------|
D|--------------------4b(5)-(5)-------------------|
A|-14----7-6-4----7-6------------7--6-------------|
E|----4-------------------------------------------|

E|------------------------------------------------|
B|----------------7b(8)-7\---777-999--------------|
G|-9-8-7-6--6-7-8------------666-888--------------|
D|------------------------------------------------|
A|------------------------------------------------|
E|------------------------------------------------|
Comments