Something Corporate - If You C Jordan Chords & Tabs

 

If You C Jordan Chords & Tabs

Something Corporate Chords & Tabs

Version: 2 Type: Tab 0 ratings
1 star 2 stars 3 stars 4 stars 5 stars
comments

If You C Jordan Tab

   
Standard tunning
 
E--------------------8-8-|
B------------------6-----|
G---7-6-5-4--4-5-7-------|
D-5----------------------|
A------------------------|
E------------------------|
[ Tab from: http://www.guitartabs.cc/tabs/s/something_corporate/if_you_c_jordan_tab_ver_2.html ]
Chords
G//// Bminor//// D//// F/// E///

E-3-3-3-3--2-2-2-2--------------------------
B-3-3-3-3--3-3-3-3--7-7-7-7/10-10-10-9-9-9---
G-4-4-4-4--4-4-4-4--7-7-7-7/10-10-10-9-9-9---
D-5-5-5-5--4-4-4-4--7-7-7-7/10-10-10-9-9-9---
A-5-5-5-5--2-2-2-2--5-5-5-5/08-08-08-7-7-7---
E-3-3-3-3------------------------------------
Comments