Something Corporate - If I Die Chords & Tabs

 

If I Die Chords & Tabs

Something Corporate Chords & Tabs

Version: 1 Type: Tab 0 ratings
1 star 2 stars 3 stars 4 stars 5 stars
comments

If I Die Tab

Something Corporate - If I Die
By:Andrew Mcshan (Guitarguyx182@aol.com)

Intro
e|-----------------------------------------3-5------3-5------3-5-------------|
B|--3-3-3-5--7-7-7-8-10-8------3-5-----3-5------3-5--------------------------|
G|---------------------------------------------------------------------------|
D|---------------------------------------------------------------------------|
A|---------------------------------------------------------------------------|
E|---------------------------------------------------------------------------|
[ Tab from: http://www.guitartabs.cc/tabs/s/something_corporate/if_i_die_tab.html ]
e|------3-5-------3-5-------------3-5-5^-3--------------3/5-3----------------|
B|-3-5-------3-5-------x2--3-5--------------3-5^--3-5--------x2--1~~---------|
G|---------------------------------------------------------------------------|
D|---------------------------------------------------------------------------|
A|---------------------------------------------------------------------------|
E|---------------------------------------------------------------------------|

Verse
e|---------------------------------------------------------------------------|
B|---------------------------------------------------------------------------|
G|---------------------------------------------------------------------------|
D|--9---7---5-------9--4-----------------------------------------------------|
A|--9---7---5--x2---9--4-----------------------------------------------------|
E|--7---5---3-------7--2-----------------------------------------------------|

Chorus
e|---------------------------------------------------------------------------|
B|---------------------------------------------------------------------------|
G|--5------7------5------7---------------------------------------------------|
D|--5--5---7--7---5---5--7---------------------------------------------------|
A|--3--5---5--7---3---5--5---------------------------------------------------|
E|-----3------5-------3------------------------------------------------------|
Comments