Something Corporate - I Woke Up In A Car Chords & Tabs

 

I Woke Up In A Car Chords & Tabs

Something Corporate Chords & Tabs

Version: 4 Type: Tab 0 ratings
1 star 2 stars 3 stars 4 stars 5 stars
comments

I Woke Up In A Car Tab

   
----------------------------------------------------------------------------
		   I Woke Up In a Car - Something Corporate                
---------------------------------------------------------------------------
Tabbed by: pdtilley
Email: pdtilley@syr.edu

Tuning: Standard

Intro/1st Verse:

e|-------4-(4)-4-(4)-----------------| (Repeat throughout first verse)
B|-----------------------------------|
G|-----------------------------------|
D|-----------------------------------|
A|-----------------------------------|
E|-----------------------------------|

  Pre-Chorus:(x4) "So here I am..."
e|---------------------------------------------|
B|---------------------------------------------|
G|---------------------------------------------|
D|-------10-10-10-10-10-10-10-10---------------|
A|-------6--6--6--6--8--8--8--8----------------|
E|---------------------------------------------|

Chorus: (x4)  "I woke up in a car..."
[ Tab from: http://www.guitartabs.cc/tabs/s/something_corporate/i_woke_up_in_a_car_tab_ver_4.html ]
e|------------------------------------------------|
B|------------------------------------------------|
G|--------------3-3-3-3-----------6---------------|
D|-----4-4-4-4--3-3-3-3--6-6-6-6--6-6-------------|
A|-----4-4-4-4--1-1-1-1--6-6-6-6--4-6-------------|
E|-----2-2-2-2-----------4-4-4-4----4-------------|

2nd Verse: Play Intro/1st Verse for beginning of 2nd verse, 
           But then this when he says   "She wrote me a letter..." 

e|----------------------------------------------|
B|----------------------------------------------|(x2)
G|----------6-6-xxx--6-6---8-8-xxx--6-6---------|
D|----------6-6-xxx--6-6---8-8-xxx--6-6---------|
A|----------4-4-xxx--4-4---6-6-xxx--4-4---------|
E|----------------------------------------------|

Bridge:  "And maybe I could live forever..."

e|-------------------------------------------------------------------------|
B|-------------------------------------------------------------------------|
G|-------------99999999--------6666------------99999999--------------------|
D|-----7777777799999999999999996666999977777777999999999~------------------|
A|-----7777777777777777999999994444999977777777777777779~------------------|
E|-----55555555--------77777777----777755555555--------7~------------------|

Song Order:

Intro/1st Verse
Pre-Chorus
Chorus
2nd Verse
Pre-Chorus
Chorus
Bridge
Pre-Chorus
Chorus


| /  slide up
| \  slide down
| h  hammer-on
| p  pull-off
| ~  vibrato
| +  harmonic
| x  Mute note
============================================================================
Comments