Something Corporate - I Woke Up In A Car Chords & Tabs

 

I Woke Up In A Car Chords & Tabs

Something Corporate Chords & Tabs

Version: 3 Type: Tab 0 ratings
1 star 2 stars 3 stars 4 stars 5 stars
comments

I Woke Up In A Car Tab

Something Corporate - I Woke Up In a Car
        by  chris G.
Standard Tuning

Intro
e|--4---4---4---4----
B|----2---2---2---2--
G|-------------------
D|-------------------  Pick back and forth 
A|-------------------  a lot during intro and verse
E|-------------------
[ Tab from: http://www.guitartabs.cc/tabs/s/something_corporate/i_woke_up_in_a_car_tab_ver_3.html ]
e|---------------------
B|---------------------
G|------3-------6------
D|--4---3---6---6------  Play really light in the 
A|--4---1---6---4------  background on clean
E|--2-------4----------  each chord once

Prechorus
e|---------------------
B|---------------------  
G|------3-------6------  More pronounced Clean
D|--4---3---6---6------  maybe mixed with a extremely
A|--4---1---6---4------  small amount of distortion 
E|--2-------4----------
   Here I am...

Chorus
e|----------------------
B|----------------------
G|------3-------6-------
D|--4---3---6---6-6----- Lots of Distortion
A|--4---1---6---4-6-----
E|--2-------4-----4-----


thats it!!!!!
Comments