Something Corporate - I Want To Save You Chords & Tabs

 

I Want To Save You Chords & Tabs

Something Corporate Chords & Tabs

Version: 1 Type: Tab 0 ratings
1 star 2 stars 3 stars 4 stars 5 stars
comments

I Want To Save You Tab

   
-----------------------------------------------------------------------------
     I Want To Save You - Something Corporate
-----------------------------------------------------------------------------
Tabbed by: Sean Riordan
Email: Skater4life9822@yahoo.com

Tuning: Usual

Intro - :10		 :29

e|-----------------------|-------------------------------------------------|
B|-----------------------|-------------------------------------------------|
G|----3-------1-------3--|---3----1----3----1----3-----1-----3----3--------|
D|--1------1-------1-----|-1----1----1----1----1----1-----1----1-----------|
A|-----------------------|-------------------------------------------------|
E|-----------------------|-------------------------------------------------|

     :45			x4 Open on 4th
e|--------------------------------------------------------------|
B|--------------------------------------------------------------|
G|--------------------------------------------------------------|
D|--5-5-5-5-5-5-5-5-----6-6-6-6-6-6-6-6-------------------------|
A|--5-5-5-5-5-5-5-5-----6-6-6-6-6-6-6-6-------------------------|
E|--3-3-3-3-3-3-3-3-----4-4-4-4-4-4-4-4-------------------------|
    x x x x x x x x     x x x x x x x x

Pre-Chorus
    :58                      1:04
e|------------------|----------------------------------------|
B|------------------|----------------------------------------|
G|-5-----5----------|--5-5-5-5-5-5-5-5---3-3-3-3-3-3-3-3-----|
D|-5-----5----------|--5-5-5-5-5-5-5-5---1-1-1-1-1-1-1-1-----|
A|-3-----3--5--6--8-|--3-3-3-3-3-3-3-3-----------------------|
E|------------------|----------------------------------------|

e|--------------------------------------------------------------|
B|--------------------------------------------------------------|
G|--3-3-3-3-3-3-3-3---------------------------------------------|
D|--3-3-3-3-3-3-3-3----6-6-6-6-6-6-6-6--------------------------|
A|--1-1-1-1-1-1-1-1----6-6-6-6-6-6-6-6--------------------------|
E|---------------------4-4-4-4-4-4-4-4--------------------------|

Chorus - Guitar 1- Part 1
    1:11    x2
e|-------------------------------------------------------|
B|-------------------------------------------------------|
G|-3-3-3-3-3-3-3-3--5-5-5-5-5-5-5-5--3-3-3-3--5-5-5-5----|
D|-1-1-1-1-1-1-1-1--5-5-5-5-5-5-5-5--3-3-3-3--5-5-5-5----|
A|------------------3-3-3-3-3-3-3-3--1-1-1-1--3-3-3-3----|
E|-------------------------------------------------------|
		       1:24 Part 2    x1
e|-------------------|--------------------------------------------------|
B|-------------------|--------------------------------------------------|
G|--7-7-7-7--8-8-8-8-|--3-3-3-3-3-3-3-3--5-5-5-5-5-5-5-5----------------|
D|--7-7-7-7--8-8-8-8-|--1-1-1-1-1-1-1-1--5-5-5-5-5-5-5-5----------------|
A|--5-5-5-5--6-6-6-6-|-------------------3-3-3-3-3-3-3-3----------------|
E|-------------------|--------------------------------------------------|
	           1:30  Repeat Part 1   x1
e|--------------|---------------------------------------------------------|
B|--------------|---------------------------------------------------------|
G|--3-3-3-3-3-3-|---------------------------------------------------------|
D|--3-3-3-3-3-3-|---------------------------------------------------------|
A|--1-1-1-1-1-1-|---------------------------------------------------------|
E|--------------|---------------------------------------------------------|
[ Tab from: http://www.guitartabs.cc/tabs/s/something_corporate/i_want_to_save_you_tab.html ]
Chorus - Guitar 2 - Part 1
    1:11    x2
e|------------------------------------------------------|
B|------------------------------------------------------|
G|--8-8-8-8-8-8-8-8--5-5-5-5-5-5-5-5--------------------|
D|--8-8-8-8-8-8-8-8--5-5-5-5-5-5-5-5--8-8-8-8-8-8-8-8-8-|
A|--6-6-6-6-6-6-6-6--3-3-3-3-3-3-3-3--8-8-8-8-8-8-8-8-8-|
E|------------------------------------6-6-6-6-6-6-6-6-6-|
	                1:24 Part 2   x1
e|-----------------|---------------------------------------------|
B|-----------------|---------------------------------------------|
G|-----------------|--8-8-8-8-8-8-8-8--5-5-5-5-5-5-5-5-----------|
D|-8-8-8-8-8-8-8-8-|--8-8-8-8-8-8-8-8--5-5-5-5-5-5-5-5-----------|
A|-8-8-8-8-8-8-8-8-|--6-6-6-6-6-6-6-6--3-3-3-3-3-3-3-3-----------|
E|-6-6-6-6-6-6-6-6-|---------------------------------------------|
  1:30 Part 1  x1      Interlude  1:37      x6
e|--------------------|-----------------------------------------|
B|--------------------|-----------------------------------------|
G|--------------------|-----------------------------------------|
D|--------------------|--5-5-5-5-5-5-5-5--6-6-6-6-6-6-6-6-------|
A|--------------------|--5-5-5-5-5-5-5-5--6-6-6-6-6-6-6-6-------|
E|--------------------|--3-3-3-3-3-3-3-3--4-4-4-4-4-4-4-4-------|
                         x x x x x x x x  x x x x x x x x
    1:56					x4
e|--------------------------------------------------------------|
B|--------------------------------------------------------------|
G|--------------------------------------------------------------|
D|--5-5-5-5-5-5-5-5--6-6-6-6-6-6-6-6----------------------------|
A|--5-5-5-5-5-5-5-5--6-6-6-6-6-6-6-6----------------------------|
E|--3-3-3-3-3-3-3-3--4-4-4-4-4-4-4-4----------------------------|

Pre-Chorus     2:09
Chorus         2:22

Interlude 2 - Par 1   2:48
e|---------------------------------------------------------------|
B|---------------------------------------------------------------|
G|--7--8-8-8--7--8-8--7--8-8-8-----------------------------------|
D|--7--8-8-8--7--8-8--7--8-8-8-----------------------------------|
A|--5--6-6-6--5--6-6--5--6-6-6---3--5--6--8----------------------|
E|---------------------------------------------------------------|
Interlude 2 - Part2   2:54   
e|---------------------------------------------------------------|
B|---------------------------------------------------------------|
G|--7--8-8-8--7--8-8--7--8-8-8-----------------------------------|
D|--7--8-8-8--7--8-8--7--8-8-8-----------------------------------|
A|--5--6-6-6--5--6-6--5--6-6-6---3--5--7--9----------------------|
E|---------------------------------------------------------------|

She Won't Sleep, She Won't Sleep... At All!  3:08
e|---------------------------------------------- ----------------|
B|---------------------------------------------------------------|
G|---------------------------------------------------------------|           
D|--8-8-8-8-8-8-8-8--6-6-6-6-6-6-6-6-----------------------------|
A|--8-8-8-8-8-8-8-8--6-6-6-6-6-6-6-6-----------------------------|
E|--6-6-6-6-6-6-6-6--4-4-4-4-4-4-4-4-----------------------------|

Chorus     3:21    x2

End

Took me an hour or two, but I got it down. Hope this helps you
all. I saw one song on mxtabs.net, and I noticed it was kinda 
wrong so I wrote this. The only part I had toruble on was the
intro power chords with palm mute, nothing sounded right.

Sean

| /  slide up
| \  slide down
| h  hammer-on
| p  pull-off
| ~  vibrato
| +  harmonic
| x  Mute note
=============================================================================
Comments