Something Corporate - Hurricane Chords & Tabs

 

Hurricane Chords & Tabs

Something Corporate Chords & Tabs

Version: 2 Type: Tab 0 ratings
1 star 2 stars 3 stars 4 stars 5 stars
comments

Hurricane Tab

   
##################################################################################
# This file is the author's own work and represents their interpretation of the  #
# song. You may only use this file for private study, scholarship, or research.  #
##################################################################################

Something Corporate -- Hurricane

I know these were already submitted, but after playing thru the way they were written, i have made a few alterations, slight ones, but they make a huge difference in the sound. I only put the beginning on, before the bridge, because i have fingerings to include also that will make this much easier for anyone. 

   F               C               G               Am      G
e|-----------------------------------------------------------------|
B|-----------1---------------1---------------3---------1-------3---|
G|-----0---0---0-------0---0---0-------0---0---0---------2-------0-|
D|---3---3-------3---2---2-------2---0---0-------0---2-------0-----|
A|-3---------------3---------------2---------------0-------2-------|
E|-----------------------------------------------------------------|
[ Tab from: http://www.guitartabs.cc/tabs/s/something_corporate/hurricane_tab_ver_2.html ]
   F               C               G
e|-----------------------------------------3-----------------------|
B|-----------1---------------1-------------------3-----3-----3-----|
G|-----0---0---0-------0---0---0-------0-----0-----0-----0-----0---|
D|---3---3-------3---2---2-------2---0---0-----0-----0-----------0-|
A|-3---------------3---------------2-----------------------2-------|
E|-----------------------------------------------------------------|

Ok, here are the fingerings (first finger is 1, middle is 2, and so on):

F- -----------
   -----------
   | | | | 1 |
   -----------
   | | 2 | | |
   -----------
   | 3 4 | | |
   -----------

C- -----------
   -----------
   | | | | 1 |
   -----------
   | | 2 | | |
   -----------
   | 3 | | | |
   ----------- (Just simply remove your pinky)

G- -----------
   -----------
   | | | | 1 |
   -----------
   | 2 | | | |
   -----------
   | | | | 4 |
   -----------

Am- -----------
    -----------
    | | | | 1 |
    -----------
    | | 2 3 | |
    -----------
    | | | | | |
    -----------

as you can tell, these are not the normal fingerings, but they make the song a ton easier to play, and they still give the same sound. also, your pointer finger does not need to move at all, except for when you hit the high note in the 2nd line above.
 your middle finger will also do very little movement. hope this helps y'all.
Comments