Something Corporate - Hurricane Chords & Tabs

 

Hurricane Chords & Tabs

Something Corporate Chords & Tabs

Version: 2 Type: Bass Tab 0 ratings
1 star 2 stars 3 stars 4 stars 5 stars
comments

Hurricane Bass Tab

-------------------------------------------------------------------
             Hurricane by Something Corporate
--------------------------------------------------------------------
tabbed by Mike

ive only been playing bass for about 12 hours, so go easy on it.

~ = let ring

intro

G|-----------------------------------------------------------------|
D|-----------------------------------------------------------------|
A|--------33-33-3---------------------------------33-33-3----------|
E|11-11-1-----------33-33-3--55-55-7/1---11-11-1----------3~-------|
[ Tab from: http://www.guitartabs.cc/tabs/s/something_corporate/hurricane_btab_ver_2.html ]
verse
G|---------------------------------------------------------------------------|
D|---------------------------------------------------------------------------|
A|---------33333333--------------------------------33333333------------------|
E|11111111-----------33333333-5555-3333--11111111-----------3333333333333333-|

chorus

G|---------------------------------------------------------------------------|
D|---------------------------------------------------------------------------|
A|------------------33333333-------------------------------------------------|
E|55555555-1111111------------33333333--5555-3333-11111111-3333333333333333--|
   so dont say.....

G|-------------------------------------|
D|-------------------------------------|
A|-------3-3-33------------------------|
E|-1-11--------3-3-33-5-55-3-33--------|
  into the hurricane...

bridge/piano solo
G|--------------------|
D|--------------------|
--------3~------------|
e5~-1~-----3~---------|   x2

order:
intro
verse
chorus
verse
intro
bridge (at the end of the piano part)
chorus x2


well thats pretty close to it i think
Comments