Something Corporate - Good News Chords & Tabs

 

Good News Chords & Tabs

Something Corporate Chords & Tabs

Version: 1 Type: Tab 0 ratings
1 star 2 stars 3 stars 4 stars 5 stars
comments

Good News Tab

Song: Good News
Artist: Something Corporate
Album: Leaving Through Your Window
Tabbed by: Eric M. (rufioyc@hotmail.com)



Intro/Verse: (Bass + Piano) "She's trapped inside her room.."


Pre-Chorus:(0:44) "And then she looked at me to scream..."  (x2)
e|-------------------------------------------------------------|
B|--------------------------------5-5-------------5-5----------|
G|--5--5--5-5-5-----------------7-----7-5~--(5)-7-----7-5h7-5--|
D|--5--5--5-5-5---5--5--5-5-5----------------------------------|
A|--3--3--3-3-3---5--5--5-5-5----------------------------------|
E|----------------3--3--3-3-3----------------------------------|

Chorus:"I want to read good news, good news..."
		                (x3) 		  		     (x1)
e|---------------------------------|------------------------------------|
B|---------------------------------|------------------------------------|
G|-5-5-5-5-------------------------|-7-7-7-7-7-7-7-7-101010101010101010-|
D|-5-5-5-5-5-5-5-5-3-3-3-3-3-3-3-3-|-7-7-7-7-7-7-7-7-101010101010101010-|
A|-3-3-3-3-5-5-5-5-3-3-3-3-3-3-3-3-|-5-5-5-5-5-5-5-5-8-8-8-8-8-8-8-8-8--|
E|---------3-3-3-3-1-1-1-1-1-1-1-1-|------------------------------------|


Verse: (Bass + Piano) "She waits all day, she stands a stranger..."


Pre-Chorus:(1:58) "And then she looked at me to scream..."  (x2)
e|-------------------------------------------------------------|
B|--------------------------------5-5-------------5-5----------|
G|--5--5--5-5-5-----------------7-----7-5~--(5)-7-----7-5h7-5--|
D|--5--5--5-5-5---5--5--5-5-5----------------------------------|
A|--3--3--3-3-3---5--5--5-5-5----------------------------------|
E|----------------3--3--3-3-3----------------------------------|
[ Tab from: http://www.guitartabs.cc/tabs/s/something_corporate/good_news_tab.html ]
Chorus: "I want to read good news, good news..."
		                (x3) 		  		     (x1)
e|---------------------------------|------------------------------------|
B|---------------------------------|------------------------------------|
G|-5-5-5-5-------------------------|-7-7-7-7-7-7-7-7-101010101010101010-|
D|-5-5-5-5-5-5-5-5-3-3-3-3-3-3-3-3-|-7-7-7-7-7-7-7-7-101010101010101010-|
A|-3-3-3-3-5-5-5-5-3-3-3-3-3-3-3-3-|-5-5-5-5-5-5-5-5-8-8-8-8-8-8-8-8-8--|
E|---------3-3-3-3-1-1-1-1-1-1-1-1-|------------------------------------|


Interlude:(1st part) "Nothing good is happening..."	     (x2)
e|--------------------------------------------------------------|
B|-4/5-5-5-5-3-3-3-3-1-1-1-1------------------------------------|
G|---------------------------4-4-4-4-2-2-2-2--0-2-2-2--0-2-2-2--|
D|--------------------------------------------------------------|
A|--------------------------------------------------------------|
E|--------------------------------------------------------------|

interlude:(2nd part)  (x2)then...			    (x1)
e|-----------------------|-------------------------------------|
B|-----------------------|-4/5-5-5-5-3-3-3-3-1-1-1-1-----------|
G|-----------5-5-5-7-7-7-|---------------------------4-4-4-5~--|
D|--7-7-7----5-5-5-7-7-7-|-------------------------------------|
A|--7-7-7----3-3-3-5-5-5-|-------------------------------------|
E|--5-5-5----------------|-------------------------------------|


Outro:"I want to read good news, good news..."	
	                (x3) 		  		     (x1)
e|---------------------------------|------------------------------------|
B|---------------------------------|------------------------------------|
G|-5-5-5-5-------------------------|-7-7-7-7-7-7-7-7-101010101010101010-|
D|-5-5-5-5-5-5-5-5-3-3-3-3-3-3-3-3-|-7-7-7-7-7-7-7-7-101010101010101010-|
A|-3-3-3-3-5-5-5-5-3-3-3-3-3-3-3-3-|-5-5-5-5-5-5-5-5-8-8-8-8-8-8-8-8-8--|
E|---------3-3-3-3-1-1-1-1-1-1-1-1-|------------------------------------|
				(x3)				     (x3)
e|---------------------------------|------------------------------------|
B|---------------------------------|------------------------------------|
G|-5-5-5-5-------------------------|-7-7-7-7-7-7-7-7-101010101010101010-|
D|-5-5-5-5-5-5-5-5-3-3-3-3-3-3-3-3-|-7-7-7-7-7-7-7-7-101010101010101010-|
A|-3-3-3-3-5-5-5-5-3-3-3-3-3-3-3-3-|-5-5-5-5-5-5-5-5-8-8-8-8-8-8-8-8-8--|
E|---------3-3-3-3-1-1-1-1-1-1-1-1-|------------------------------------|


Alright that's it. This is pretty close to perfect but but if you
have any corrections or comments please send me a message, thanx.

Oh yea and some dude has been stealing my tabs and posting them on
www.mxtabs.net . Buddy that's just pathetic...

Enjoy,
Comments