Something Corporate - Fall Chords & Tabs

 

Fall Chords & Tabs

Something Corporate Chords & Tabs

Version: 1 Type: Bass Tab 0 ratings
1 star 2 stars 3 stars 4 stars 5 stars
comments

Fall Bass Tab

I am pretty sure this is right


Verse 1: repeat 3 times
G|----------------------------------| 
D|----------------------------------| 
A|-2--22-2------------------2-22-2--| 
E|----------2-22-2--4-44-4----------| 
[ Tab from: http://www.guitartabs.cc/tabs/s/something_corporate/fall_btab.html ]
Verse 2: play once
G|-----------------------------------------| 
D|-----------------------------------------| 
A|-22222222--------------------2222222222--| 
E|----------22222222-444444444-------------| 

Chorus: 
G|----------------------------------------------------| 
D|----------------------------------------------------| 
A|-2-22-2-2-22----------------------------------------| 
E|-------------2-22-2-2-22--0-00-0-0-00--2-22-2-2-22--| 

Bridge 
G|---------------------| 
D|---------------------| 
A|---------1-22222222--| 
E|--4444444------------|
Comments