Something Corporate - Drunk Girl Chords & Tabs

 

Drunk Girl Chords & Tabs

Something Corporate Chords & Tabs

Version: 2 Type: Tab

Drunk Girl Tab

'Drunk Girl'
Something Corporate
Leaving Through the Window
Geffen Records


Tabbed by:
Email:

Tuning: Standard

Intro: 0:09
e|----------------------------------------------------------------------|
B|--8-10-8-5-3---0-1----------------------------------------------------|
G|-------------2--------------------------------------------------------|
D|----------------------------------------------------------------------|
A|----------------------------------------------------------------------|
E|----------------------------------------------------------------------|

{NO GUITAR FOR-}
I kissed a drunk girl.
I kissed a drunk girl, yes I did.
Kissed a drunk girl on the lips.

1st Verse, come in on 'I let my guard down' (0:29)
e|-------------------------------------------------------------------------|
B|-------------------------------------------------------------------------|
G|----------------9999--5555-----------------------------------------------|
D|----5555--9999--9999--5555-----------------------------------------------|
A|----5555--9999--7777--3333-----------------------------------------------|
E|----3333--7777-----------------------------------------------------------|
                      ALL OF THE ABOVE PALM MUTED

Repeat the above 3x, then take this variation the fourth time-

e|-----------------------------------------------------------------------|
B|-----------------------------------------------------------------------|
G|----------------9999--5---5--------------------------------------------|
D|----5555--9999--9999--5---5--------------------------------------------|
A|----5555--9999--7777--3---3--------------------------------------------|
E|----3333--7777---------------------------------------------------------|

This leads into the chorus, and make sure you hit those last two power chords hard!

CHORUS (0:43)
The chorus is the same as the verse, just played with much more power
e|-------------------------------------------------------------------------|
B|-------------------------------------------------------------------------|
G|----------------9999--5555-----------------------------------------------|
D|----5555--9999--9999--5555-----------------------------------------------|
A|----5555--9999--7777--3333-----------------------------------------------|
E|----3333--7777-----------------------------------------------------------|
[ Tab from: http://www.guitartabs.cc/tabs/s/something_corporate/drunk_girl_tab_ver_2.html ]
Play 4x, then comes the pre-verse
This is backed by the verse shown above, just played lightly and palm muted. The lead is as follows-

e|---------------------------------------------15\13--15\13--15\13--15\13-|
B|---------------------------------------------15\13--15\13--15\13--15\13-|
G|-0(let ring)--3-2-0-(0)----7--7--12-(let ring)--------------------------|
D|------------------------------------------------------------------------|
A|------------------------------------------------------------------------|
E|------------------------------------------------------------------------|

Pretty much the only part of the song I'm not 100% sure about is the 15\13 slide...but 
pretty darn close, and it sounds like it works, so thats what I put.

VERSE 2- Same as Verse One, scroll up to learn...BUT

After 'Her little cousin just passed out on the lawn' (1:17-1:21)
ADD-

--------|
--------|
--5-----|
--5-----| (With Power)
--------|
--------|

Then just continue with the verse another 2x. Then, chorus. After the Chorus, DO NOT DO 
PRE-VERSE. There is one more verse afterwards, and when he says 'She said no',(2:09) 
play the chords at that moment harder.

Then, play the chorus again.

There is a small interlude, which is tabbed below

e|-----------------------------------------------------------------|
B|-----------------------------------------------------------------|
G|--------99999---------55555-----55555555---8---------------------|
D|--99999-99999---55555-55555-----55555555---8---------------------|
A|--99999-77777---55555-33333-----33333333---6---------------------|
E|--77777---------33333--------------------------------------------|
  I go home...         feeling lonely.....    Do you even remember...

Then, just chorus again. Then an outro-

e|--------------------------------------------------------------|
B|--------------------------------------------------------------|
G|--55555555---88888888-----------------------------------------|
D|--55555555---88888888------5----------------------------------|
A|--33333333---66666666------5----------------------------------|
E|---------------------------3----------------------------------|

So the order goes-

Intro
Verse 3x
Variation 1x
Chorus 1x
Per-Verse 1x
Verse 3x (remember 'her little cousin' part)
Chorus 1x
Verse 4x (remember 'she said no' part)
Chorus 1x
Interlude 1x
Chorus 1x
Outro

Hope you guys like it!!