Something Corporate - Drunk Girl Chords & Tabs

 

Drunk Girl Chords & Tabs

Something Corporate Chords & Tabs

Version: 1 Type: Tab 0 ratings
1 star 2 stars 3 stars 4 stars 5 stars
comments

Drunk Girl Tab

Song:Drunk Girl
Band:Something Corporate
Tabbed By:Mike D

Sappy Intro:
Third Time 'Round Play This Once
e|----------------------------------------------|
B|----------------------------------------------|
G|----------------------------------------------|
D|--5----------5--7--9-10-----------------------|
A|----9--7--3-----------------------------------|
E|----------------------------------------------|
[ Tab from: http://www.guitartabs.cc/tabs/s/something_corporate/drunk_girl_tab.html ]
Verse/Chorus
e|----------------------------------------------|
B|----------------------------------------------|
G|--------9--5----------------------------------|
D|--5--9--9--5----------------------------------|
A|--5--9--7--3----------------------------------|
E|--3--7----------------------------------------|
This is just a start version for all you tabbers that are better than me ;)
It's pretty short, but it should get you by for now.
Comments