Something Corporate - Cavanaugh Park Chords & Tabs

 

Cavanaugh Park Chords & Tabs

Something Corporate Chords & Tabs

Version: 3 Type: Tab 0 ratings
1 star 2 stars 3 stars 4 stars 5 stars
comments

Cavanaugh Park Tab

Tuning : EADGBE (Standard)

Intro (Guitar 1):
e|-----------------------------------------------------------------|
B|-----------------------------------------------------------------|
G|--4---4-----4-----4---4------------------------------------------|
D|--4---4---4---4---4---4------------------------------------------|
A|--2---2-----------2---2------------------------------------------|
E|------0---------------0------------------------------------------|

Verse (Guitar 1):
e|-----------------------------------------------------------------|
B|-----------------------------------------------------------------|
G|--4---4---4------------------------------------------------------|
D|--4---4---4---4--------------------------------------------------|
A|--2---2---2---4--------------------------------------------------|
E|------0-------2--------------------------------------------------|
[ Tab from: http://www.guitartabs.cc/tabs/s/something_corporate/cavanaugh_park_tab_ver_3.html ]
Verse (Guitar 2):
e|-----------------------------------------------------------------|
B|-----------------------------------------------------------------|
G|--11-9-8----11-9-8----------------------11-9-8-------------------|
D|---------9~--------11/13-11-9----9/11-9--------11~---------------|
A|------------------------------11---------------------------------|
E|-----------------------------------------------------------------|

Part right before chorus (Guitar 2):
e|-----------------------------------------------------------------|
B|-----------------------------------------------------------------|
G|--8-8--8--9--9--9--8--8--8--11-11-11----------------------------|
D|----9--9--9--9--9--9--9--9--9--9--9-9---------------------------|
A|-----------------------------------------------------------------|
E|-----------------------------------------------------------------|
*Listen carefully for the guitar 2 parts...they're difficult to hear
*but they're there.

Chorus (Guitar 1):
e|-----------------------------------------------------------------|
B|-----------------------------------------------------------------|
G|-4-----------8---------------------------------------------------|
D|-4---4---6---8---2---2---4---4-----------------------------------|
A|-2---4---6---6---2---2---4---4-----------------------------------|
E|-----2---4-------0---0---2---2-----------------------------------|

*Listen to the song for the strumming patterns,breaks,and order. It's
*really easy. Enjoy:-).
*
*
***OsRitmos***
Comments