Something Corporate - Cavanaugh Park Chords & Tabs

 

Cavanaugh Park Chords & Tabs

Something Corporate Chords & Tabs

Version: 2 Type: Tab 0 ratings
1 star 2 stars 3 stars 4 stars 5 stars
comments

Cavanaugh Park Tab

   
Something Corporate
Canvanaugh Park

Standard Tuning

Intro

e|-----------------------------------------------------------------|
B|-----------------------------------------------------------------|
G|--4-------4-------------4---------4-------4----------------------|
D|--4-------4-----------4---4-------4-------4----------------------|
A|--2-------2-----------------------2-------2----------------------|
E|--x-------0-----------------------x-------0----------------------|
[ Tab from: http://www.guitartabs.cc/tabs/s/something_corporate/cavanaugh_park_tab_ver_2.html ]
Verses
    B      B/E          B           F#         Repeat Chords
e|------------------------------------------|  Throughout Verse
B|------------------------------------------|
G|--4-------4-----------4-------------------|
D|--4-------4-----------4-----------4-------|
A|--2-------2-----------2-----------4-------|
E|--x-------0-----------x-----------2-------|

Chorus
   B   F#   G#   D    E   F#  
e|--------------------0-------------------------------------|
B|--------------------1-------------------------------------|
G|-4-------------8----0-------------------------------------|
D|-4---4----6----8----2----4--------------------------------|
A|-2---4----6----6----2----4--------------------------------|
E|-----2----4---------0----2--------------------------------|

Repeat throughout Chorus

any questions email me - ryandunn@cogeco.ca
peace
Comments