Something Corporate - Cavanaugh Park Chords & Tabs

 

Cavanaugh Park Chords & Tabs

Something Corporate Chords & Tabs

Version: 1 Type: Tab 0 ratings
1 star 2 stars 3 stars 4 stars 5 stars
comments

Cavanaugh Park Tab

   
-------------------------------------------------------------------------------
			     cavanaugh park - something corporate
-------------------------------------------------------------------------------
Tabbed by: coTTon baLL

alot of ppl are looking for this on piano or guitar, so I did my best, hope you enjoy

Tuning:eadgbe

little intro:

e|-----------------------------------------------------------------
B|--4-------5-----------------------4-------5----------------------
G|--4-------4-------------4---------4-------4----------------------
D|--4-------4-----------4---4-------4-------4----------------------
A|--6-------x-----------------------6-------x----------------------
E|--x-------0-----------------------x-------0----------------------
                                                    (pause for drums)
[ Tab from: http://www.guitartabs.cc/tabs/s/something_corporate/cavanaugh_park_tab.html ]
Verses:
   Eb     E      Eb   F#
e|---------------------------------------------------------------
B|--4------5-----4-----7------7----------------------------------
G|--4------4-----4-----4------4----------------------------------
D|--4------4-----4-----4------4----------------------------------
A|--6------x-----6-----x------x----------------------------------
E|--x------0-----x-----0--or--x----------------------------------

Chorus:

e|---------------------------------------------------------------
B|---------------------------------------------------------------
G|-4-------------8--------6--------2-----------------------------
D|-4---4----6----8----2---6--------2-----------------------------
A|-2---4----6----6----2---4--------4-----------------------------
E|-----2----4---------0------------------------------------------
                                 (..."never do change")

| /  slide up
| \  slide down
| h  hammer-on
| p  pull-off
| ~  vibrato
| +  harmonic
| x  Mute note
===============================================================================
Comments