Something Corporate - Bad Days Chords & Tabs

 

Bad Days Chords & Tabs

Something Corporate Chords & Tabs

Version: 1 Type: Chords 0 ratings
1 star 2 stars 3 stars 4 stars 5 stars
comments

Bad Days Chords

   
Here's the chords to the song's Intro, Verses and Chorus. Hope it helps.
Strumming isnt tabbed, its easy enough.

Intro

  Em                      G

e-0-----------------------3---
B-0-----------------------3---
G-0-----------------------0---
D-2-----------------------0---      x2
A-2-----------------------2---
E-0-----------------------3---
Its been a bad day.........Another bad day, and all i wanna do is...

Verse 1

  G                    D                              C

e-3--------------------2------------------------------0----------------
B-3--------------------3------------------------------1----------------
G-0--------------------2------------------------------0----------------
D-0--------------------0------------------------------2----------------
A-2--------------------x------------------------------3----------------
E-3--------------------x------------------------------x----------------
From where Im sitting..Im walkin backwards looking..dont see the sky...

Chorus

  G           D                Em    C              G          D
[ Tab from: http://www.guitartabs.cc/tabs/s/something_corporate/bad_days_crd.html ]
e-3-----------2----------------0-----0--------------3----------2--
B-3-----------3----------------0-----1--------------3----------3--
G-0-----------2----------------0-----0--------------0----------2--
D-0-----------0----------------2-----2--------------0----------0--     x2
A-2-----------x----------------2-----3--------------2----------x--
E-3-----------x----------------0-----x--------------3----------x--
Above below..look and so you wonder..time has gone..lookin up, tomorrows on..


Verse 2

  Em       G     Em           G          D           C

e-0--------3-----0------------3----------2-----------0-----------
B-0--------3-----0------------3----------3-----------1-----------
G-0--------0-----0------------0----------2-----------0-----------
D-2--------0-----2------------0----------0-----------2-----------
A-2--------2-----2------------2----------x-----------3-----------
E-0--------3-----0------------3----------x-----------x-----------
She sits...2pm...guess whos..work again..i guess..without this life...


Now repeat Verse 1
Then the Chorus

The rest of the song is the same chords as above...hope this helps you out

-Louis
Questions? email me at alk3racer87@aol.com
Comments