Something Corporate - As You Sleep Chords & Tabs

 

As You Sleep Chords & Tabs

Something Corporate Chords & Tabs

Version: 1 Type: Tab 0 ratings
1 star 2 stars 3 stars 4 stars 5 stars
comments

As You Sleep Tab

Something Corporate - As You Sleep
Blueyedbrownie@hotmail.com
Transribed by Kris Balraj *aka* The Blueyedbrownie

I love playing this song on the piano so I tabbed it out and it sounds incredible
acoustically.  It can't be done with just one guitar; it doesn't sound right.  The
fingering might in the verse might be a little weird, but once you overcome that,
things should be all right.

To make it easier, for those who read sheet music or have a particular idea how to
read sheet music, each bar represents one measure of music.  For example, the first
part of the peice for the first guitar is four measures of music.  Got it?  Good!

Also, the person who plays the first guitar should be very skilled because the picking
in the chourus and bridge is very fast.  So take your time and have fun!

Intro/Verse - Play twice
Guitar 1
|------0~------|------0~------|---------------|---------------|
|2----------3-2|-----------3-2|0-2-------0----|0-2-------0----|
|----2---------|2---2---------|----2---2---2--|----2---2---2--|
|--4------4----|--2------2----|------4-------4|------4-------4|
|--------------|--------------|---------------|---------------|
|--------------|--------------|---------------|---------------|

Guitar 2
|--------------|--------------|---------------|---------------|
|--------------|--------------|---------------|---------------|
|4-------------|--------------|---------------|---------------|
|4-------------|5-------------|2--------------|5--------------|
|2-------------|5-------------|2--------------|5--------------|
|--------------|3-------------|0--------------|3--------------|

Pre-Chorus						       
Guitar 1					 Let ring
|---------------|---------------|---------------|5------------|
|0-2-------0----|0-2-------0----|0-2-------0----|-------------|
|----2---2---2--|----2---2---2--|----2---2---2--|2------------|
|------4-------4|------4-------4|------4-------4|-------------|
|---------------|---------------|---------------|-------------|
|---------------|---------------|---------------|-------------|

Guitar 2					 Let ring
|---------------|---------------|---------------|-------------|
|---------------|---------------|---------------|-------------|
|---------------|---------------|---------------|-------------|
|2---2---2---2--|5---5---5---5--|2---2---2---2--|5------------|
|2---2---2---2--|5---5---5---5--|2---2---2---2--|5------------|
|0---0---0---0--|3---3---3---3--|0---0---0---0--|3------------|

Chorus - Play 3x
Guitar 1
|12-----12-----12-----12-----|12-----12-----12-----12-----|
|--10-10--10-10--10-10--10-10|--10-10--10-10--10-10--10-10|
|----9------9------9------9--|----9------9------9------9--|
|----------------------------|----------------------------|
|----------------------------|----------------------------|
|----------------------------|----------------------------|

Guitar 2 
|---------------------------------------------------------|
|---------------------------------------------------------|
|2--------------------------------------------------------|
|2--------------------------------------------------------|
|0--------------------------------------------------------|
|---------------------------------------------------------|

Guitar 1
|12-----12-----12-----12-----|12-----12-----12-----12-----|
|--10-10--10-10--10-10--10-10|--10-10--10-10--10-10--10-10|
|----9------9------9------9--|----9------9------9------9--|
|----------------------------|----------------------------|
|----------------------------|----------------------------|
|----------------------------|----------------------------|

Guitar 2
|----------------------------|----------------------------|
|----------------------------|----------------------------|
|4---------------------------|----------------------------|
|4---------------------------|5---------------------------|
|2---------------------------|5---------------------------|
|----------------------------|3---------------------------|
[ Tab from: http://www.guitartabs.cc/tabs/s/something_corporate/as_you_sleep_tab.html ]
Out-chorus
Guitar 1
|12-----12-----12-----12-----|12-----12-----12-----12-----|
|--10-10--10-10--10-10--10-10|--10-10--10-10--10-10--10-10|
|----9------9------9------9--|----9------9------9------9--|
|----------------------------|----------------------------|
|----------------------------|----------------------------|
|----------------------------|----------------------------|

Guitar 2
|----------------------------|----------------------------|
|----------------------------|----------------------------|
|----------------------------|----------------------------|
|2------2------2------2------|5------5------5------5------|
|2------2------2------2------|5------5------5------5------|
|0------0------0------0------|3------3------5------3------|

Guitar 1			   Play this only the first time through
|12-----12-----12-----12-----|-10-|22-21-17-12-10-9-5------------------|
|--10-10--10-10--10-10--10-10|----|-------------------5-3-2------------|
|----9------9------9------9--|-7--|-------------------------2-2-0------|
|----------------------------|----|-------------------------------4-0--|
|----------------------------|----|-----------------------------------0|
|----------------------------|----|------------------------------------|

Guitar 2
|----------------------------|---|
|----------------------------|---|
|----------------------------|---|
|2------2------2------2------|-5-|
|2------2------2------2------|-5-|
|0------0------0------0------|-3-|

Play verse and chorus and out-chorus again.

Bridge
Guitar 1
|12-----12-----12-----12-----|12-----12-----12-----12-----|
|--10-10--10-10--10-10--10-10|--10-10--10-10--10-10--10-10|
|----9------9------9------9--|----9------9------9------9--|
|----------------------------|----------------------------|
|----------------------------|----------------------------|
|----------------------------|----------------------------|

Guitar 2
|----------------------------|----------------------------|
|----------------------------|----------------------------|
|4---------------------------|-------3------6------7------|
|4---------------------------|-------3------6------7------|
|2---------------------------|-------1------4------5------|
|----------------------------|----------------------------|

Guitar 1
|12-----12-----12-----12-----|12-----12-----12-----12-----|
|--10-10--10-10--10-10--10-10|--10-10--10-10--10-10--10-10|
|----9------9------9------9--|----9------9------9------9--|
|----------------------------|----------------------------|
|----------------------------|----------------------------|
|----------------------------|----------------------------|
Guitar 2 - Let this chord ring out for two measures
|----------------------------|----------------------------|
|----------------------------|----------------------------|
|----------------------------|----------------------------|
|5---------------------------|----------------------------|
|5---------------------------|----------------------------|
|3---------------------------|----------------------------|

Guitar 1
|12-----12-----12-----12-----|12-----12-----12-----12-----|
|--10-10--10-10--10-10--10-10|--10-10--10-10--10-10--10-10|
|----9------9------9------9--|----9------9------9------9--|
|----------------------------|----------------------------|
|----------------------------|----------------------------|
|----------------------------|----------------------------|

Guitar 2
|----------------------------|----------------------------|
|----------------------------|----------------------------|
|4---------------------------|-------3------6------7------|
|4---------------------------|-------3------6------7------|
|2---------------------------|-------1------4------5------|
|----------------------------|----------------------------|

Guitar 1
|12-----12-----12-----12-----|12-----12-----12-----12-----|
|--10-10--10-10--10-10--10-10|--10-10--10-10--10-10--10-10|
|----9------9------9------9--|----9------9------9------9--|
|----------------------------|----------------------------|
|----------------------------|----------------------------|
|----------------------------|----------------------------|
Guitar 2 - Let this chord ring out for two measures
|----------------------------|----------------------------|
|----------------------------|----------------------------|
|----------------------------|----------------------------|
|5---------------------------|----------------------------|
|5---------------------------|----------------------------|
|3---------------------------|----------------------------|

Play out-chorus and then you're done!
Comments