Something Corporate - 21 And Invincible Chords & Tabs

 

21 And Invincible Chords & Tabs

Something Corporate Chords & Tabs

Version: 2 Type: Tab 0 ratings
1 star 2 stars 3 stars 4 stars 5 stars
comments

21 And Invincible Tab

I didn't like the other versions I saw. Hope this helps somebody. This is my first tab,
so if you don't like it.... can't say I really care. Have fun!

Something Corporate - 21 and Invincible (solo)
[ Tab from: http://www.guitartabs.cc/tabs/s/something_corporate/21_and_invincible_tab_ver_2.html ]
E|------------------------------------------------|
B|--8888888888888---------------------------------|
G|-----------------4/5--7---7-7-7-5---4/5---------|
D|-----------------------------------------5------|
A|------------------------------------------------|
E|------------------------------------------------|


E|------------------------------------------------|
B|-----------------88888888-7-7-8-----------------|
G|--7-7-7-5---4/5---------------------------------|
D|------------------------------------------------|
A|------------------------------------------------|
E|------------------------------------------------|
Comments