Something Corporate - 21 And Invincible Chords & Tabs

 

21 And Invincible Chords & Tabs

Something Corporate Chords & Tabs

Version: 1 Type: Tab 0 ratings
1 star 2 stars 3 stars 4 stars 5 stars
comments

21 And Invincible Tab

21 and invincible solo

dont know how correct it is....  if u dont like my version make yur own.
Corrections and comments welcome...
i_am_a_pirate_75@yahoo.com

little prelude
|----------------------------|
|-0h1p0h1p0h1----------------|
|----------------------------|
|----------------------------|
|----------------------------|
|----------------------------|

[ Tab from: http://www.guitartabs.cc/tabs/s/something_corporate/21_and_invincible_tab.html ]
de de de de de de de do daa da da da daa do doo la la la
|-3-3-3-3-3-3-3-3-3------------------------------|
|--------------------0-1-3-3-3-3~--3-1-----------|
|--------------------------------------4-2-------|
|------------------------------------------5-5-5-|
|------------------------------------------------|
|------------------------------------------------|

daa dadaa do doo de de de de di di di di de deeee....
|------------3-3-3-3-3-3-2-2-2-2-2-3-3-3~--------|
|-1-h3-1-----------------------------------------|
|--------4-2-------------------------------------|
|------------------------------------------------|
|------------------------------------------------|
|------------------------------------------------|

enjoy,

jeremy and my acoustic josie
Comments